PrimaNota.ru - самый крупный в мире бесплатный архив песенных текстов, аккордов, табулатур и нот


Go Betty Go - Crumbling Down - текст песни, таба, видео

Регистрация Запомнить меня
Войти через:  Facebook Google Twitter Vk Yandex Mail.ru

Go Betty Go - Crumbling Down - текст песни, таба, видео

Печатать
Просмотров: 125
-------------------------------------------------------------------------------
                           Crumbling Down - Go Betty Go
-------------------------------------------------------------------------------
Tabbed by:gial666
Email:gibran_3000@yahoo.com.mx

Tuning:E A D G B e

00:00  -  00:10

e|---------------------------------------------------------------------------|
B|---------------------------------------------------------------------------|
G|---------------------------------------------------------------------------|
D|-9----5----9----5----9----5------------------------------------------------|
A|-9----5----9----5----9----5------------------------------------------------|
E|-7----3----7----3----7----3------------------------------------------------|

00:11  -  00:20

e|---------------------------------------------------------------------------|
B|---------------------------------------------------------------------------|
G|---------------------------------------------------------------------------|
D|-9-----5-----9-----5-----9-----5-4-----------------------------------------|
A|-9-----5-----9-----5-----9-----5-4-----------------------------------------|
E|-7-----3-----7-----3-----7-----3-2-----------------------------------------|

00:21    00:30

e|---------------------------------------------------------------------------|
B|---------------------------------------------------------------------------|
G|---------7-----------------------------------------------------------------|
D|-9---5---7---7----x2-------------------------------------------------------|
A|-9---5---5---7-------------------------------------------------------------|
E|-7---3-------5-------------------------------------------------------------|

00:31 -  00:39

e|---------------------------------------------------------------------------|
B|---------------------------------------------------------------------------|
G|---------7-----------------------------------------------------------------|
D|-9---5---7---7-------------------------------------------------------------|
A|-9---5---5---7-------------------------------------------------------------|
E|-7---3-------5-------------------------------------------------------------|

00:40  -  00:49

e|---------------------------------------------------------------------------|
B|---------------------------------------------------------------------------|
G|---------------------------------------------------------------------------|
D|-7----4--------------------------------------------------------------------|
A|-7----4----x5--------------------------------------------------------------|
E|-5----2-------------------------------------------------------------------|

00:50  -  01:11

e|---------------------------------------------------------------------------|
B|---------------------------------------------------------------------------|
G|---------------------------------------------------------------------------|
D|-9-----5-----9-----5-----9-----5-4-----------------------------------------|
A|-9-----5-----9-----5-----9-----5-4-----------------------------------------|
E|-7-----3-----7-----3-----7-----3-2-----------------------------------------|

01:12  -  01:22

e|---------------------------------------------------------------------------|
B|---------------------------------------------------------------------------|
G|-----------7---------------------------------------------------------------|
D|-7----5----7----7-----x2----------------------------------------------------|
A|-7----5----5----7----------------------------------------------------------|
E|-9----3---------5----------------------------------------------------------|

01:23  -  01:35

e|---------------------------------------------------------------------------|
B|---------------------------------------------------------------------------|
G|---------7-----------------------------------------------------------------|
D|-9---5---7---7-----x3------------------------------------------------------|
A|-9---5---5---7-------------------------------------------------------------|
E|-7---3-------5-------------------------------------------------------------|

01:36  -  01:45

e|---------------------------------------------------------------------------|
B|---------------------------------------------------------------------------|
G|---------------------------------------------------------------------------|
D|-7----4--------------------------------------------------------------------|
A|-7----4----x5--------------------------------------------------------------|
E|-5----2-------------------------------------------------------------------|

01:46  -  02:06

e|---------------------------------------------------------------------------|
B|---------------------------------------------------------------------------|
G|---------------------------------------------------------------------------|
D|-9-----5-----9-----5-----9-----5-4-----------------------------------------|
A|-9-----5-----9-----5-----9-----5-4-----------------------------------------|
E|-7-----3-----7-----3-----7-----3-2-----------------------------------------|

solo (02:07  -  02:27)


02:28  -  02:39

e|---------------------------------------------------------------------------|
B|---------------------------------------------------------------------------|
G|---------7-----------------------------------------------------------------|
D|-9---5---7---7----x2-------------------------------------------------------|
A|-9---5---5---7-------------------------------------------------------------|
E|-7---3-------5-------------------------------------------------------------|


| /  slide up
| \  slide down
| h  hammer-on
| p  pull-off
| ~  vibrato
| +  harmonic
| x  Mute note
===============================================================================
Добавлено: 19.05.2012
Другие материалы по этой песне:
  • Аккорды и текст

Страница создана 29.04.2012
http://primanota.ru/go-betty-go/crumbling-down-chords.htm
Привет, Гость.
Предлагаем пройти революционный курс по гитаре.
Подарок от PrimaNota.Ru, забирай!