PrimaNota.ru - самый крупный в мире бесплатный архив песенных текстов, аккордов, табулатур и нот


Go Back To The Zoo - Nicer - таба, видео

Регистрация Запомнить меня
Войти через:  Facebook Google Twitter Vk Yandex Mail.ru

Go Back To The Zoo - Nicer - таба, видео

Печатать
Просмотров: 96
Go back to the zoo - Nicer tab door Tractor Teun



|--------------------|
|-5---5--------------|
|-7---5--------------|
|-5---5--------------|   4x
|--------------------|
|--------------------|


|------------------------|
|-5--5----0---1----------|
|-7--5----4---2----------|
|-5--5----5---3----------|  6x
|------------------------|
|------------------------|



refrein

|---------------------------------------------|
|--10-10--------------------------------------|
|----------9-11-12-11-9---7/9-9-9-11-12-------|  1x
|---------------------------------------------|
|---------------------------------------------|
|---------------------------------------------|


|------------------------|
|-5--5----0---1----------|
|-7--5----4---2----------|
|-5--5----5---3----------|  6x
|------------------------|
|------------------------|


refrein

|---------------------------------------------|
|--10-10--------------------------------------|
|----------9-11-12-11-9---7/9-9-9-11-12-------|  2x
|---------------------------------------------|
|---------------------------------------------|
|---------------------------------------------|


solo

|-------------------------------------8-10-8---|             |-12b-12b-12b-12b--12b12b-|
|-10-10-10-10-10-10-10-10-10-10-10-10----------|             |-------------------------|
|----------------------------------------------|  3x         |-------------------------|
|----------------------------------------------|  en dan     |-------------------------|
|----------------------------------------------|             |-------------------------|
|----------------------------------------------|             |-------------------------|

|--------------------|
|-5---5--------------|
|-7---5--------------|
|-5---5--------------|   2x
|--------------------|
|--------------------|


refrein

|---------------------------------------------|
|--10-10--------------------------------------|
|----------9-11-12-11-9---7/9-9-9-11-12-------|  ~~~~~~~~~~~~
|---------------------------------------------|
|---------------------------------------------|
|---------------------------------------------|



Добавлено: 09.04.2012
Другие материалы по этой песне:
  • Аккорды и текст

Страница создана 09.04.2012
http://primanota.ru/go-back-to-the-zoo/nicer-chords.htm
Привет, Гость.
Предлагаем пройти революционный курс по гитаре.
Подарок от PrimaNota.Ru, забирай!