PrimaNota.ru - самый крупный в мире бесплатный архив песенных текстов, аккордов, табулатур и нот


Go Back To The Zoo - Charlene - таба, видео

Регистрация Запомнить меня
Войти через:  Facebook Google Twitter Vk Yandex Mail.ru

Go Back To The Zoo - Charlene - таба, видео

Печатать
Просмотров: 134
Уроки эстрадного вокала в Санкт-Петербурге
Band: Go Back To The Zoo
Track: Charlene
Album(single): Charlene (2013)

Pretty sure that everything is quite accurate, except for the second part of
the chorus. Any advice on that part is very welcome.

tip: Add chorus effect.

Chords; C-F-G-F


Bass(intro);
G -----------------------------------------|
D -----------------------------------------|
A ----------10(x5)-------------------------|
E ---8(x3)----------10(x3)--12(x5)---------|



Lead guitar;

Pre-Verse
e  --10\-----5---5-5----5-5-5-5----|
B  --12\-----6---6-5----6-5-5-5----|
G  --12\-----5---5-5----5-5-7-5----|
D  --12\-----5---5-5----5-5-5-5----|
A  --10----------------------------|
E  --------------------------------|
   X2

Verse
e  -----------------------------------------|
B  -----------------------------------------|
G  -----------------------------------------|
D  -----------------------------------------|
A  ---------3-3-3-3-3-----------------------|
E  --1-1-1-------------3-3-3-5-5-5-5-5------|
   X4


e  --------------------------------------|
B  --------------------------------------|
G  ----------5---------------------------|
D  ----3----5-5----5------7--------------|
A  ---3-3--3------5-5----7-7-------------|
E  --1-----------3------5----------------|
   X4


Chorus
e -----12v-----13--15p13-------15--16--------13-----12-12-10--|
B -----10v----------------------------------------------------|
G --12-12v--/14--14-----14--/16--15--15-15\14--14\12----------|
D ------------------------------------------------------------|
A ------------------------------------------------------------|
E ------------------------------------------------------------|

e -----12v-----13--15p13------19--17--15--13---12-12-10-------|
B -----10v----------------------------------------------------|
G --12-12v--/14--14-----14--19--17--16--14---12---------------|
D ------------------------------------------------------------|
A ------------------------------------------------------------|
E ------------------------------------------------------------|


Bridge                            !last part is for rhythm guitar...
e  --2------3-------5------------(8)------|
B  --4------5-------7------------(10)-----|
G  --4------5-------7------------(10)-----|
D  --4------5-------7------------(10)-----|
A  --2------3-------5----------- (8)------|
E  ---------------------------------------|
   X3

Solo
swing around in the pentatonic scale of D

Start at G string 12 & 14 and then bend string B 15 and continue.

Order;
intro(bass)
Pre-Verse
Verse
Chorus (X2)
Pre-Verse
Verse
Chorus (X2)
Bridge
Solo
Chorus (repeat untill the end)
Добавлено: 20.09.2013
Другие материалы по этой песне:
  • Аккорды и текст

Страница создана 20.09.2013
http://primanota.ru/go-back-to-the-zoo/charlene-chords.htm
Привет, Гость.
Предлагаем пройти революционный курс по гитаре.
Подарок от PrimaNota.Ru, забирай!