PrimaNota.ru - самый крупный в мире бесплатный архив песенных текстов, аккордов, табулатур и нот


Go Back To The Zoo - A Mobile Phone Beeps From Her Trousers - бас-таба, видео

Регистрация Запомнить меня
Войти через:  Facebook Google Twitter Vk Yandex Mail.ru

Go Back To The Zoo - A Mobile Phone Beeps From Her Trousers - бас-таба, видео

Печатать
Просмотров: 99
e--------------------------------------33-3-3-3-----|
a—55-5-5-5-5-5-7875-11-1-1-1------------------------|
d---------------------------------------------------| 10 x
g---------------------------------------------------|

e---------------------------------------------------|
a---5—575-5-5-5-5-5-5-5-----------------------------|
d----7----------------------------------------------| 5 x
g---------------------------------------------------|

e--------------------------------------33-3--3-3----|
a—55-5-5-5-5-5-7875-11-1-1-1------------------------|
d---------------------------------------------------| 4 x
g---------------------------------------------------|

e---------------------------------------------------|
a---5-575-5-5-5-5-5-5-5-----------------------------|
d----7----------------------------------------------| 4 x
g---------------------------------------------------|

e----------1-----------5----------------------------|
a-----------------------------------1---------------|
d---------------------------------------------------| 4 x
g---------------------------------------------------|

e----11111115555555---------------------------------|
a-------------------------11133551113355------------|
d---------------------------------------------------| 6 x
g---------------------------------------------------|

e---------------------------------------------------|
a----1-3—5-7----------------------------------------|
d---------------------------------------------------| 3 x
g---------------------------------------------------|

e---------------------------------------------------|
a---5-575-------------------------------------------|
d----7----------------------------------------------| 1 x
g---------------------------------------------------|
Добавлено: 01.05.2012
Другие материалы по этой песне:
  • Аккорды и текст

Страница создана 01.05.2012
http://primanota.ru/go-back-to-the-zoo/a-mobile-phone-beeps-from-her-trousers-chords.htm
Привет, Гость.
Предлагаем пройти революционный курс по гитаре.
Подарок от PrimaNota.Ru, забирай!