PrimaNota.ru - самый крупный в мире бесплатный архив песенных текстов, аккордов, табулатур и нот


Go Audio - Woodchuck - таба, бас-таба, видео

Регистрация Запомнить меня
Войти через:  Facebook Google Twitter Vk Yandex Mail.ru

Go Audio - Woodchuck - таба, бас-таба, видео

Печатать
Просмотров: 138
This song is absolutely amazing.. my friend Harri Woods and I have become obsessed :)

BUT!.. I figured out the tab for it so our band can cover it :)

All by ear too ;)

IF YOU DON'T UNDERSTAND ANY OF MY PATTERNS .. LISTEN TO THE SONG .. IT WILL BECOME CLEAR ;)

HERE IT GOES!  ENJOY!


Guitar 1 = Synth (if you have one)
Guitar 2 = Distorted
Bass = Distorted

INTRO

*drums*

Guitar 2
e----------------|
B----------------|
G------------9---|
D------------9---|
A------------7---|
E----------------|

*drum fill*

Guitar 1 (Synth)

e----------------------------|
B----------------------------|
G-----444--------------------|            Just once! (During fill!)
D----------------------------|            It's really quick (Listen
A----------------------------|            to the song to get it right)
E----------------------------|

e-----------------------------------------------|
B-----------------------------------------------|
G-----4-4-4540--4-4-4540--4-4-4540---4-444-2----|     x2
D-----------------------------------------------|
A-----------------------------------------------|
E-----------------------------------------------|

Guitar 2 (Distorted)

e-----------------------------------------|
B-----------------------------------------|
G------------99999999-77777777-55555555---|
D---55555555-99999999-77777777-55555555---|           x2
A---55555555-77777777-55555555-33333333---|
E---33333333------------------------------|


Bass (Distorted)

e-----------------------------------------|
B-----------------------------------------|
G-----------------------------------------|
D-----------------------------------------|           x2
A---------------------55555555-33333333---|
E---33333333-00000000---------------------|

VERSE

*Vocals start*

Guitar 1 (Synth)

e-----------------------------------------|
B-----------------------------------------|
G------------99999999-77777777-55555555---|
D---55555555-99999999-77777777-55555555---|           x2
A---55555555-77777777-55555555-33333333---|
E---33333333------------------------------|

Guitar 2 (Distorted)

e-----------------------------------------|
B-----------------------------------------|
G---------------------77777777-55555555---|
D---55555555-22222222-77777777-55555555---|           x2
A---55555555-22222222-55555555-33333333---|
E---33333333-00000000---------------------|


Bass (Distorted)

e-----------------------------------------|
B-----------------------------------------|
G-----------------------------------------|
D-----------------------------------------|           x2
A---------------------55555555-33333333---|
E---33333333-00000000---------------------|

BRIDGE

e----------------|
B----------------|
G----------------|
D---22-22-22-22--|
A---22-22-22-22--|
E---00-00-00-00--|

CHORUS

Guitar 1 (Synth)

e-----------------------------------------|
B-----------------------------------------|
G------------55555555----------77777777---|
D---22222222-55555555-55555555-77777777---|           x2
A---22222222-33333333-55555555-55555555---|
E---00000000----------33333333------------|

Guitar 2 (Distorted)

e-----------------------------------------|
B-----------------------------------------|
G------------55555555----------77777777---|
D---22222222-55555555-55555555-77777777---|           x2
A---22222222-33333333-55555555-55555555---|
E---00000000----------33333333------------|

Bass (Distorted)

e-----------------------------------------|
B-----------------------------------------|
G-----------------------------------------|
D-----------------------------------------|           x2
A------------33333333----------55555555---|
E---00000000----------33333333------------|

BRIDGE 2 (Pretty much like the intro)

Guitar 1 (Synth)

e-----------------------------------------------|
B-----------------------------------------------|
G-----4-4-4540--4-4-4540--4-4-4540---4-444-2----|     x2
D-----------------------------------------------|
A-----------------------------------------------|
E-----------------------------------------------|

Guitar 2 (Distorted)

e-----------------------------------------|
B-----------------------------------------|
G------------99999999-77777777-55555555---|
D---55555555-99999999-77777777-55555555---|           x2
A---55555555-77777777-55555555-33333333---|
E---33333333------------------------------|


Bass (Distorted)

e-----------------------------------------|
B-----------------------------------------|
G-----------------------------------------|
D-----------------------------------------|           x2
A---------------------55555555-33333333---|
E---33333333-00000000---------------------|

VERSE 2

Guitar 1 (Synth)

e-----------------------------------------|
B-----------------------------------------|
G---------------------77777777-55555555---|
D---55555555-22222222-77777777-55555555---|           x2
A---55555555-22222222-55555555-33333333---|
E---33333333-00000000---------------------|

Guitar 2 (Distorted)

e-----------------------------------------|
B-----------------------------------------|
G---------------------77777777-55555555---|
D---55555555-22222222-77777777-55555555---|           x2
A---55555555-22222222-55555555-33333333---|
E---33333333-00000000---------------------|


Bass (Distorted)

e-----------------------------------------|
B-----------------------------------------|
G-----------------------------------------|
D-----------------------------------------|           x2
A---------------------55555555-33333333---|
E---33333333-00000000---------------------|

BRIDGE

e----------------|
B----------------|
G----------------|
D---22-22-22-22--|
A---22-22-22-22--|
E---00-00-00-00--|

CHORUS 2   (Slightly different because of Guitar 1)

Guitar 1 (Synth)

e-----------------------------------------------|
B-----------------------------------------------|
G-----4-4-4540--4-4-4540--4-4-4540---4-444-2----|     x2
D-----------------------------------------------|
A-----------------------------------------------|
E-----------------------------------------------|

Guitar 2 (Distorted)

e-----------------------------------------|
B-----------------------------------------|
G------------55555555----------77777777---|
D---22222222-55555555-55555555-77777777---|           x2
A---22222222-33333333-55555555-55555555---|
E---00000000----------33333333------------|

Bass (Distorted)

e-----------------------------------------|
B-----------------------------------------|
G-----------------------------------------|
D-----------------------------------------|           x2
A------------33333333----------55555555---|
E---00000000----------33333333------------|

BRIDGE 3

Guitar 2 (Distorted)

e-----------------------------------------------|
B-----------------------------------------------|
G---------6-666-------5-555---------------------|     x2
D---5-5-5-6-666-5-5-5-5-555---------------------|
A---5-5-5-4-444-5-5-5-3-333---------------------|
E---3-3-3-------3-3-3---------------------------|

INTERLUDE? (Don't know what the name of this is :P)

Bass (Distorted)

e-----------------------------------------------|
B-----------------------------------------------|
G-----------------------------------------------|
D-----------------------------------------------|   once on it's own
A-----------3-3-3-3-7-7-7-7-3-3-3-3-------------|
E---3-3-3-3-------------------------------------|

THEN THE OTHER GUITARS COME IN

Guitar 1 (Synth)  PALM MUTE!

e-----------------------------------------------|
B-----------------------------------------------|
G------------55555555-99999999-5----------------|
D---55555555-55555555-99999999-5----------------|
A---55555555-33333333-77777777-3----------------|
E---33333333------------------------------------|

Guitar 2 (Distorted)

e-----------------------------------------------|
B-----------------------------------------------|
G------------55555555-99999999-5----------------|
D---55555555-55555555-99999999-5----------------|
A---55555555-33333333-77777777-3----------------|
E---33333333------------------------------------|

Then repeat of "Gotta slow it down girl"  (NO GUITAR 1)

Guitar 2 (Distorted)

e-----------------------------------------------|
B-----------------------------------------------|
G---55555555-77777777-99999999-99999999---------|
D---55555555-77777777-99999999-99999999---------|   x3
A---33333333-55555555-77777777-77777777---------|
E-----------------------------------------------|

Bass (Distorted)

e-----------------------------------------------|
B-----------------------------------------------|
G-----------------------------------------------|
D-----------------------------------------------|   x3
A---33333333-55555555-77777777-77777777---------|
E-----------------------------------------------|

ON THE THIRD TIME, ADD THIS FOR THE SYNTH GUITAR .. SOUNDS GOOD ;)

e-----------------------------------------------|
B-----------------------------------------------|
G---12-x8--14-x6--17-x2-16-x8--14-x8------------|
D-----------------------------------------------|   3RD TIME ROUND
A-----------------------------------------------|   AND CARRY ON AFTER
E-----------------------------------------------|

THEN

Guitar 1 (Synth)

e-----------------------------------------------|
B-----------------------------------------------|
G---12-x8--14-x6--17-x2-16-x8--14-x8------------|
D-----------------------------------------------|
A-----------------------------------------------|
E-----------------------------------------------|


Guitar 2 (Distorted)

e-----------------------------------------------|
B-----------------------------------------------|
G---55555555-77777777-99999999-1212121212121212-|
D---55555555-77777777-99999999-1212121212121212-|
A---33333333-55555555-77777777-1010101010101010-|
E-----------------------------------------------|

Bass (Distorted)

e-----------------------------------------------|
B-----------------------------------------------|
G-----------------------------------------------|
D-----------------------------------------------|
A---33333333-55555555-77777777-1010101010101010-|
E-----------------------------------------------|

CHORUS   (TWICE WITH SYNTH PART)

Guitar 2 (Distorted)

e-----------------------------------------|
B-----------------------------------------|
G------------55555555----------77777777---|
D---22222222-55555555-55555555-77777777---|
A---22222222-33333333-55555555-55555555---|
E---00000000----------33333333------------|

Bass (Distorted)

e-----------------------------------------|
B-----------------------------------------|
G-----------------------------------------|
D-----------------------------------------|
A------------33333333----------55555555---|
E---00000000----------33333333------------|

ON THE SECOND ONE... STOP ON 5 AND SLIDE DOWN LIKE THIS..

Guitar 2 (Distorted)

e-----------------------------------------|
B-----------------------------------------|
G------------55555555----------7/---------|
D---22222222-55555555-55555555-7/---------|
A---22222222-33333333-55555555-5/---------|
E---00000000----------33333333------------|

Bass (Distorted)

e-----------------------------------------|
B-----------------------------------------|
G-----------------------------------------|
D-----------------------------------------|
A------------33333333----------5/---------|
E---00000000----------33333333------------|

NOW WITH THE SYNTH...

Guitar 1 (Synth)

e-----------------------------------------------|
B-----------------------------------------------|
G-----4-4-4540--4-4-4540--4-4-4540---4-444-2----|     x2
D-----------------------------------------------|
A-----------------------------------------------|
E-----------------------------------------------|

Guitar 2 (Distorted)

e-----------------------------------------|
B-----------------------------------------|
G------------55555555----------77777777---|
D---22222222-55555555-55555555-77777777---|           x2
A---22222222-33333333-55555555-55555555---|
E---00000000----------33333333------------|

Bass (Distorted)

e-----------------------------------------|
B-----------------------------------------|
G-----------------------------------------|
D-----------------------------------------|           x2
A------------33333333----------55555555---|
E---00000000----------33333333------------|

AND TO FINISH...

e--------------------------------|
B--------------------------------|
G---------6-666-------5-555------|
D---5-5-5-6-666-5-5-5-5-555------|
A---5-5-5-4-444-5-5-5-3-333------|
E---3-3-3-------3-3-3------------|

e--------------------------------|
B--------------------------------|
G---------6-666-------5-555------|
D---5-5-5-6-666-5-5-5-5-555-55---|
A---5-5-5-4-444-5-5-5-3-333-55---|
E---3-3-3-------3-3-3-------33---|


That is it :)

I hope it serves you well, and comment me or message me if you liked it ;)


www.myspace.com/tomcraig99

add it ;)


Thanks Guys .. MORE SOON!
Добавлено: 07.04.2012
Другие материалы по этой песне:

Страница создана 05.03.2012
http://primanota.ru/go-audio/woodchuck-chords.htm
Привет, Гость.
Предлагаем пройти революционный курс по гитаре.
Подарок от PrimaNota.Ru, забирай!