PrimaNota.ru - самый крупный в мире бесплатный архив песенных текстов, аккордов, табулатур и нот


Go Audio - Take The Floor - бас-таба, видео

Регистрация Запомнить меня
Войти через:  Facebook Google Twitter Vk Yandex Mail.ru

Go Audio - Take The Floor - бас-таба, видео

Печатать
Просмотров: 108
---------------------------------------------------------------------------
			   TAKE THE FLOOR – Go:Audio
---------------------------------------------------------------------------

Tabbed By : DrSin
e-mail: Drsin13@hotmail.co.uk

Tuning: Standard

I KNOW GO:AUDIO DON'T HAVE A BASSIST BUT THERE IS DEFINITELY SOME BASS IN THE 
SONGS. PLEASE RATE AND COMMENT, THANKS!! XD

(((((((Comes in at 0:32))))))

G|------------------------------------------------------------------------|
D|------------------------------------------------------------------------|
A|------------------------------------------------------------------------|
E|--7-----7-6----6-7------2-----7-------7-5------5-7----------------------|
  …AH AHH…….	       				   ………………SHOUT, SHOUT OUT………………

G|------------------------------------------------------------------------|
D|------------------------------------------------------------------------|
A|------------------------------------------------------------------------|
E|-----------------------7------------5------7-7----7----7-7----7---------|
  ………JUST A BITTER TASTE………                       

G|------------------------------------------------------------------------|
D|------------------------------------------------------------------------|
A|------------------------------------------------------------------------|
E|-0/7-7-7----7----7-7----7----6-6----6----6-6----6----7-7----7----7-7---7|
        …NOW ITS MY TURN TO SAY….

G|------------------------------------------------------------------------|
D|------------------------------------------------------------------------|
A|------------------------------------------------------------------------|
E|--5-5----5----6-6----6----7-7----7----7-7----7----6-6----6----6-6---6---|
   		

G|------------------------------------------------------------------------|
D|------------------------------------------------------------------------|
A|------------------------------------------------------------------------|
E|--7-7----7----7-7----7----5-5----5----6-6----6--------------------------|
   …I TAKE BACK…

G|------------------------------------------------------------------------|
D|------------------------------------------------------------------------|
A|------------------------------------------------------------------------|
E|------------------------------------------------------------------------|
  …SHOUT,SHOUT OUT…

THE REST OF THE SONG CAN BE IMPROVISED, I COULDNT FIND A PERFECT WAY TO PLAY IT.

| /  slide up
| \  slide down
| h  hammer-on
| p  pull-off
| ~  vibrato
| +  harmonic
| x  Mute note

===========================================================================
Добавлено: 27.06.2012
Другие материалы по этой песне:
  • Аккорды и текст

Страница создана 27.06.2012
http://primanota.ru/go-audio/take-the-floor-chords.htm
Привет, Гость.
Предлагаем пройти революционный курс по гитаре.
Подарок от PrimaNota.Ru, забирай!