PrimaNota.ru - самый крупный в мире бесплатный архив песенных текстов, аккордов, табулатур и нот


Gnarwolves - Community Stability Identity - таба, бас-таба, видео

Регистрация Запомнить меня
Войти через:  Facebook Google Twitter Vk Yandex Mail.ru

Gnarwolves - Community Stability Identity - таба, бас-таба, видео

Печатать
Просмотров: 35
Standard Tuning
Intro

E-----------------|-----------------|-----------------|-----------------|
B-----------------|-----------------|-----------------|-----------------|
G-10-8/3-5-3/1----|1----------------|-10-8/3-5-3/1----|1----------------|
D-----------------|3----------------|-----------------|1----------------|
A-----------------|-----------------|-----------------|-----------------|
E-----------------|-----------------|-----------------|-----------------|


E-----------------|-----------------|-----------------|-----------------|
B-----------------|-----------------|-----------------|-----------------|
G-10-8/3-5-3/1----|1----------------|1------1---------|-----------------|
D-----------------|3----------------|1------3---------|-----------------|
A-----------------|-----------------|-----------------|-----------------|
E-----------------|-----------------|-----------------|-----------------|


E-----------------|-----------------|-----------------|-----------------|
B-----------------|-----------------|-----------------|-----------------|
G-10-8/3-5-3/1----|1-111--1---1---1-|-10-8/3-5-3/1----|1-0h1p0-1--------|
D-----------------|3-333--3---3---3-|-----------------|1-------3--------|
A-----------------|-----------------|-----------------|-----------------|
E-----------------|-----------------|-----------------|-----------------|

Verse

E-----------------|-----------------|-----------------|-----------------|
B-----------------|-----------------|-----------------|-----------------|
G-----------------|-----------------|-----------------|-----------------|
D-----------------|-----------------|-----------------|-----------------|
A-----------------|-----------------|-----------------|-----------------|
E-----------------|-----------------|-----------------|-----------------|


E-----------------|-----------------|-----------------|-----------------|
B-----------------|-----------------|-----------------|-----------------|
G-----------------|-----------------|1---1------------|-----------------|
D-3-------5-------|1----------------|1---3------------|-----------------|
A-----------------|-----------------|-----------------|-----------------|
E-----------------|-----------------|-----------------|-----------------|

Chorus
                   v^v^v^v^v^v^v^v^
E-----------------|-----------------|-----------------|-----------------------|
B-----------------|-----------------|-----------------|-----------------------|
G-10-8/3-5-3/1----|1111111100001111-|10-8/3/12-13-----|3h5-3h5-3h5-3h5 3h53h5-|
D-----------------|3333333333333333-|-----------------|-----------------------|
A-----------------|-----------------|-----------------|-----------------------|
E-----------------|-----------------|-----------------|-----------------------|


E-------------------|------------------|-----------------|-----------------|
B-------------------|------------------|-----------------|-----------------|
G-------------------|----------3h5p3/1-|-1-1h3p1-1--111-1|1111111133335555-|
D-------------------|666-10-66--------3|-1-------3--333-3|3333333355556666-|
A-------8/10/8-6-666|------------------|-----------------|-----------------|
E-------6/8 /6-4-444|------------------|-----------------|-----------------|


E------------------|-----------------|------------------|-----------------|
B------------------|-----------------|------------------|-----------------|
G------------------|-----------------|------------------|-----------------|
D-6-666-66---------|-----------------|-6-666-66---------|-----------------|
A-4-444-44-6-666-66|3-33333-3333-33--|-4-444-44-6-666-66|3-33333-3333-33--|
E----------4-444-44|1-11101-1111-11--|----------4-444-44|1-11101-1111-11--|


E-----------------|-----------------|-----------------|-----------------|
B-----------------|-----------------|-----------------|-----------------|
G-----------------|-----------------|-----------------|-----------------|
D-66xx------------|-----------------|3-3xx------------|-----------------|
A-44xx6-666-6-----|3-33333-3333-33--|1-1xx6~----------|-----------------|
E---xx4-444-4-----|1-11101-1111-11--|---xx4~----------|-----------------|
Добавлено: 04.06.2016
Вам также может быть интересно:
Другие материалы по этой песне:
  • Аккорды и текст

Страница создана 31.05.2016
http://primanota.ru/gnarwolves/community-stability-identity-chords.htm
Привет, Гость.
Предлагаем пройти революционный курс по гитаре.
Подарок от PrimaNota.Ru, забирай!