PrimaNota.ru - самый крупный в мире бесплатный архив песенных текстов, аккордов, табулатур и нот


Gnarwolves - Blondie - таба, видео

Регистрация Запомнить меня
Войти через:  Facebook Google Twitter Vk Yandex Mail.ru

Gnarwolves - Blondie - таба, видео

Печатать
Просмотров: 51
Уроки эстрадного вокала в Санкт-Петербурге
Song: Blondie
Artist: Gnarwolves

Tuning: Half Step Down

I didn't wanna have
 another conversation
e|------------------------|
B|------------------------|
G|-4-----4--4--4-----4--4-|
D|-4-----4--4--4-----4--4-|
A|-2-----2--0--2-----2--0-|
E|------------------------|

      I have the currency but
e|------------------------|
B|------------------------|
G|-4--4--4--4--4--4--4--4-|
D|-4--4--4--4--4--4--4--4-|
A|----------------------0-|
E|-3--3--3--3--3--3--3----|

  not the dedication
e|------------------------|
B|------------------------|
G|-4-----4--4--4-----4--4-|
D|-4-----4--4--4-----4--4-|
A|-2-----2--0--2-----2--0-|
E|------------------------|

          and I've been
e|------------------------|
B|------------------------|
G|-4--4--4--4--4--4--4--4-|
D|-4--4--4--4--4--4--4--4-|
A|------------------------|
E|-3--3--3--3--3--3--3--3-|

   banging on about
e|------------------------|
B|-2--2--2--2--2--2--2--2-|
G|-2--2--2--2--2--2--2--2-|
D|-2--2--2--2--2--2--2--2-|
A|-0--0--0--0--0--0--0--0-|
E|------------------------|

         not sleeping
e|-0--0--0--0--0--0--0--0-|
B|-3--3--3--3--3--3--3--3-|
G|-4--4--4--4--4--4--4--4-|
D|-0--0--0--0--0--0--0--0-|
A|------------------------|
E|-3--3--3--3--3--3--3--3-|

There's never solitude in
e|-0--0--0--0--0--0--0--0-|
B|-3--3--3--3--3--3--3--3-|
G|-4--4--4--4--4--4--4--4-|
D|-0--0--0--0--0--0--0--0-|
A|------------------------|
E|-3--3--3--3--3--3--3--3-|

   sleeping on the floor
e|------------------------|
B|------------------------|
G|-4-----4--4--4-----4--4-|
D|-4-----4--4--4-----4--4-|
A|-2-----2--0--2-----2--0-|
E|------------------------|

   there's never anywhere to
e|------------------------|
B|------------------------|
G|-4--4--4--4--4--4--4--4-|
D|-4--4--4--4--4--4--4--4-|
A|----------------------0-|
E|-3--3--3--3--3--3--3----|

   be clean anymore
e|------------------------|
B|------------------------|
G|-4-----4--4--4-----4--4-|
D|-4-----4--4--4-----4--4-|
A|-2-----2--0--2-----2--0-|
E|------------------------|

          and I've been
e|------------------------|
B|------------------------|
G|-4--4--4--4--4--4--4--4-|
D|-4--4--4--4--4--4--4--4-|
A|------------------------|
E|-3--3--3--3--3--3--3--3-|

   banging on about
e|------------------------|
B|-2--2--2--2--2--2--2--2-|
G|-2--2--2--2--2--2--2--2-|
D|-2--2--2--2--2--2--2--2-|
A|-0--0--0--0--0--0--0--0-|
E|------------------------|

      not sleeping        and I've been
e|-0--0--0--0--0--0--0--0--2--3--2--0-|
B|-3--3--3--3--0--0--0--0--0--0--0--0-|
G|-4--4--4--4--0--0--0--0--0--0--0--0-|
D|-0--0--0--0--2--2--2--2--2--2--2--2-|
A|-------------2--2--2--2--2--2--2--2-|
E|-3--3--3--3--0--0--0--0--0--0--0--0-|

   hanging on the
e|------------------------|
B|-2--2--2--2--2--2--2--2-|
G|-2--2--2--2--2--2--2--2-|
D|-2--2--2--2--2--2--2--2-|
A|-0--0--0--0--0--0--0--0-|
E|------------------------|

   telephone                   Got me
e|-0--0--0--0--0--0--0--0--2--3--2--0-|
B|-3--3--3--3--0--0--0--0--0--0--0--0-|
G|-4--4--4--4--0--0--0--0--0--0--0--0-|
D|-0--0--0--0--2--2--2--2--2--2--2--2-|
A|-------------2--2--2--2--2--2--2--2-|
E|-3--3--3--3--0--0--0--0--0--0--0--0-|

   hanging on the
e|------------------------|
B|-2--2--2--2--2--2--2--2-|
G|-2--2--2--2--2--2--2--2-|
D|-2--2--2--2--2--2--2--2-|
A|-0--0--0--0--0--0--0--0-|
E|------------------------|

         telephone
e|-0--0--0--0--0--0--0--0-|
B|-3--3--3--3--3--3--3--3-|
G|-4--4--4--4--4--4--4--4-|
D|-0--0--0--0--0--0--0--0-|
A|------------------------|
E|-3--3--3--3--3--3--3--3-|


e|------------------------------------------------|
B|------------------------------------------------|
G|-4-----4--4--4-----4--4--4--4--4--4--3--3--3--3-|
D|-4-----4--4--4-----4--4--4--4--4--4--3--3--3--3-|
A|-2-----2--0--2-----2--0--------------1--1--1--1-|
E|-------------------------3--3--3--3-------------|


e|-------------------------0-|
B|-------------------------0-|
G|-4-----4--4--4-----4--4--0-|
D|-4-----4--4--4-----4--4--2-|
A|-2-----2--0--2-----2--0--2-|
E|-------------------------0-|

It's never comfortable to
  not know where you are
e|------------------------|
B|------------------------|
G|-4-----4--4--4-----4--4-|
D|-4-----4--4--4-----4--4-|
A|-2-----2--0--2-----2--0-|
E|------------------------|

      There's nothing permament in
e|------------------------|
B|------------------------|
G|-4--4--4--4--4--4--4--4-|
D|-4--4--4--4--4--4--4--4-|
A|----------------------0-|
E|-3--3--3--3--3--3--3----|

   presents or in part
e|------------------------|
B|------------------------|
G|-4-----4--4--4-----4--4-|
D|-4-----4--4--4-----4--4-|
A|-2-----2--0--2-----2--0-|
E|------------------------|

          but I've been
e|------------------------|
B|------------------------|
G|-4--4--4--4--4--4--4--4-|
D|-4--4--4--4--4--4--4--4-|
A|------------------------|
E|-3--3--3--3--3--3--3--3-|

   having the best time
e|------------------------|
B|-2--2--2--2--2--2--2--2-|
G|-2--2--2--2--2--2--2--2-|
D|-2--2--2--2--2--2--2--2-|
A|-0--0--0--0--0--0--0--0-|
E|------------------------|

      not sleeping        got me
e|-0--0--0--0--0--0--0--0--2--3--2--0-|
B|-3--3--3--3--0--0--0--0--0--0--0--0-|
G|-4--4--4--4--0--0--0--0--0--0--0--0-|
D|-0--0--0--0--2--2--2--2--2--2--2--2-|
A|-------------2--2--2--2--2--2--2--2-|
E|-3--3--3--3--0--0--0--0--0--0--0--0-|

   hanging on the
e|------------------------|
B|-2--2--2--2--2--2--2--2-|
G|-2--2--2--2--2--2--2--2-|
D|-2--2--2--2--2--2--2--2-|
A|-0--0--0--0--0--0--0--0-|
E|------------------------|

   telephone                   Got me
e|-0--0--0--0--0--0--0--0--2--3--2--0-|
B|-3--3--3--3--0--0--0--0--0--0--0--0-|
G|-4--4--4--4--0--0--0--0--0--0--0--0-|
D|-0--0--0--0--2--2--2--2--2--2--2--2-|
A|-------------2--2--2--2--2--2--2--2-|
E|-3--3--3--3--0--0--0--0--0--0--0--0-|

   hanging on the
e|------------------------|
B|-2--2--2--2--2--2--2--2-|
G|-2--2--2--2--2--2--2--2-|
D|-2--2--2--2--2--2--2--2-|
A|-0--0--0--0--0--0--0--0-|
E|------------------------|

   telephone
e|-0--0--0--0--0--0--0--0-|
B|-3--3--3--3--3--3--3--3-|
G|-4--4--4--4--4--4--4--4-|
D|-0--0--0--0--0--0--0--0-|
A|------------------------|
E|-3--3--3--3--3--3--3--3-|
Добавлено: 31.05.2016
Вам также может быть интересно:
Другие материалы по этой песне:
  • Аккорды и текст

Страница создана 31.05.2016
http://primanota.ru/gnarwolves/blondie-chords.htm
Привет, Гость.
Предлагаем пройти революционный курс по гитаре.
Подарок от PrimaNota.Ru, забирай!