PrimaNota.ru - самый крупный в мире бесплатный архив песенных текстов, аккордов, табулатур и нот


Gnarkill - Shitbird Serenade - таба, видео

Регистрация Запомнить меня
Войти через:  Facebook Google Twitter Vk Yandex Mail.ru

Gnarkill - Shitbird Serenade - таба, видео

Печатать
Просмотров: 95
gnarkill


shitbird serenade


Tabbed by Rudy Guzman


guzman_84@hotmail.com



tunning 1 step down
      
eb|----------------------3------------------3---3--------------|
Bb|-------3-3-3------3-----3-------3-3-3----3---3--------3-3-3-|
Gb|-------0-0-0--------0-----------0-0-0----0---0--------0-0-0-|
Db|-------2-2-2----0---------------2-2-2----0---0--------2-2-2-|
Ab|-0h2h3---3----------------0-2-3---3-------------0-2-3---3---|
Eb|--------------3------------------------3---3----------------|

eb|----------3--------2---2--3--2-|
Bb|----3-------3------3---3--3--3-|
Gb|------0-------0----2---2--2--2-|
Db|--------0--------0---0----0--0-|
Ab|-------------------------------|
Eb|-3-----------------------------|

    verse
eb|--------------------3--------------------3----------------|
Bb|-------3-3-3----------3-------3-3-3--------3--------3-3-3-|
Gb|-------0-0-0------------------0-0-0-----------------0-0-0-|
Db|-------2-2-2----0-------------2-2-2----0------------2-2-2-|
Ab|-0h2h3---3--------------0-2-3---3-------------0-2-3---3---|
Eb|--------------3----------------------3--------------------|

eb|-------3---------2-2--3-3--2-2-|
Bb|---------3-------3-3--3-3--3-3-|
Gb|-----------0-----2-2--2-2--2-2-|
Db|----0--------0-0---0--0-0--0-0-|
Ab|-------------------------------|
Eb|-3-----------------------------|

   chrous
eb|-----3-3---------------2-2--3-3--2-2-2-2-|
Bb|---3-3-3-------3-3-3---3-3--3-3--3-3-3-3-|
Gb|---0-0-0-------0-0-0---2-2--2-2--2-2-2-2-|
Db|---0-0-0-------2-2-2-0-0-0--0-0--0-0-0-0-|
Ab|---2-2-2-0-2-3-3-3-3---------------------|
Eb|-3---3-3---------------------------------|

    verse
eb|--------------------3--------------------3----------------|
Bb|-------3-3-3----------3-------3-3-3--------3--------3-3-3-|
Gb|-------0-0-0------------------0-0-0-----------------0-0-0-|
Db|-------2-2-2----0-------------2-2-2----0------------2-2-2-|
Ab|-0h2h3---3--------------0-2-3---3-------------0-2-3---3---|
Eb|--------------3----------------------3--------------------|

eb|-------3---------2-2--3-3--2-2-|
Bb|---------3-------3-3--3-3--3-3-|
Gb|-----------0-----2-2--2-2--2-2-|
Db|----0--------0-0---0--0-0--0-0-|
Ab|-------------------------------|
Eb|-3-----------------------------|

   chrous
eb|-----3-3---------------2-2--3-3--2-2-2-2-|
Bb|---3-3-3-------3-3-3---3-3--3-3--3-3-3-3-|
Gb|---0-0-0-------0-0-0---2-2--2-2--2-2-2-2-|
Db|---0-0-0-------2-2-2-0-0-0--0-0--0-0-0-0-|
Ab|---2-2-2-0-2-3-3-3-3---------------------|
Eb|-3---3-3---------------------------------|

eb|-0-0-0-0--2-2-2-2--3-3-3-3--2-2-2-2-|
Bb|-0-0-0-0--3-3-3-3--3-3-3-3--3-3-3-3-|
Gb|-0-0-0-0--2-2-2-2--0-0-0-0--2-2-2-2-|
Db|-2-2-2-2--0-0-0-0--0-0-0-0--0-0-0-0-|
Ab|-2-2-2-2-----------2-2-2-2----------|
Eb|-0-0-0-0-----------3-3-3-3----------|

eb|-0-0-0-0--2-2-2-2--3-3-3-3-3-3-3-3--3--|
Bb|-0-0-0-0--3-3-3-3--3-3-3-3-3-3-3-3--3--|
Gb|-0-0-0-0--2-2-2-2--0-0-0-0-0-0-0-0--0--|
Db|-2-2-2-2--0-0-0-0--0-0-0-0-0-0-0-0--0--|
Ab|-2-2-2-2-----------2-2-2-2-2-2-2-2--2--|
Eb|-0-0-0-0-----------3-3-3-3-3-3-3-3--3--|




hillo son mex
25/03/10
Добавлено: 01.05.2012
Другие материалы по этой песне:
  • Аккорды и текст

Страница создана 01.05.2012
http://primanota.ru/gnarkill/shitbird-serenade-chords.htm
Привет, Гость.
Предлагаем пройти революционный курс по гитаре.
Подарок от PrimaNota.Ru, забирай!