PrimaNota.ru - самый крупный в мире бесплатный архив песенных текстов, аккордов, табулатур и нот


Glup - Welcome Polinesia - бас-таба, видео

Регистрация Запомнить меня
Войти через:  Facebook Google Twitter Vk Yandex Mail.ru

Glup - Welcome Polinesia - бас-таба, видео

Печатать
Просмотров: 143
Уроки эстрадного вокала в Санкт-Петербурге
++++++++++++++++++++++++++++
| Glup!- Welcome Polinesia |
++++++++++++++++++++++++++++


"I wanna love you..."

Tuning: EADG


Intro
"Woah..."
1.
G|-----------------------------------|
D|-------76--------------------------|
A|----------44-2424-55-55757---------|
E|-55-454--------------------55-4545-|

2.
G|------------------------------------------------------|
D|--------76---------00-00202-44-2424--00-00202-44-2424-|
A|-----------44-2424------------------4-----------------|
E|-55-454-----------------------------------------------|

3.
G|--------------------|
D|--00--00-0202020202-|
A|-4---4--------------|
E|--------------------|

Verse
"Everybody's singing my song..."
4.
G|-------------------------------------------------------------|
D|-------------------------------------------------------------|
A|-------------------------------------------------------------|
E|-------------------------------------------------------------|

"Everbody check out my love..."
5.
G|-------------------------------------------------------------|
D|-------------------------------------------------------------|
A|-7~--5-4-----------------------------------------------------|
E|-------------------------------------------------------------|

"I wanna live in Jamaica..."
6.
G|------------------------------------|
D|------------------------------------|
A|----------4-4-4-4-45-5-5-5-57-7-7-7-|
E|-5-5-5-5-5--------------------------|

Pre-Chorus
"Everybody use marihuana..."
7.
G|--------------------------------------------------|
D|-22-0202-44-2424----------22-0202-22-0202-44-2424-|
A|-----------------45-54545-------------------------|
E|--------------------------------------------------|

8.
G|----------------------------------|
D|----------------------------------|
A|-45-545-545-545-547-757-757-757-7-|
E|----------------------------------|

Chorus
"Everybody loves Jamaica..."
9.
G|-----------------------------------|
D|-------76--------------------------|
A|----------44-2424-55-55757---------|
E|-55-454--------------------55-4545-|

10.
G|------------------------------------------------------|
D|--------76---------00-00202-44-2424--00-00202-44-2424-|
A|-----------44-2424------------------4-----------------|
E|-55-454-----------------------------------------------|

"I wanna love you..."
11.
G|--------------------|
D|--00--00-0202020202-|
A|-4---4--------------|
E|--------------------|

12.
G|-----------------------------------|
D|-------76--------------------------|
A|----------44-2424-55-55757---------|
E|-55-454--------------------55-4545-|

13.
G|------------------------------------------------------|
D|--------76---------00-00202-44-2424--00-00202-44-2424-|
A|-----------44-2424------------------4-----------------|
E|-55-454-----------------------------------------------|

14.
G|--------------------|
D|--00--00-0202020202-|
A|-4---4--------------|
E|--------------------|

Verse
"Everybody canta conmigo..."
15.
G|----------------------------------------------------------|
D|----------------------------------------------------------|
A|-77-57--------------------------------------------------7-|
E|----------------------------------------------------------|

"Now and forever te quiero..."
16.
G|-----------------------------------------------------------|
D|-----------------------------------------------------------|
A|-7-7-7~--5-4-----------------------------------------------|
E|-----------------------------------------------------------|

Pre-Chorus
"Live in Jamaica..."
17.
G|----------------------------|
D|----------------------------|
A|--------4~----45~----57~----|
E|-5~----5--------------------|

"Sisters, brothers..."
18.
G|---------------------------------------------------------------------|
D|-22-0202-44-2424----------22-0202-22-0202-4-4-2424-------------------|
A|-----------------45-54545--------------------------45-54545-45-54545-|
E|---------------------------------------------------------------------|

"Sisters, brothers..."
19.
G|-----------------|
D|-22-0202-22-0202-|
A|-----------------|
E|-----------------|

Chorus
"Everybody loves Jamaica..."
20.
G|-------------------------------------|
D|-------76------------------------7-7-|
A|----------44-2424-55-55757-----------|
E|-55-454--------------------55-45-----|

21.
G|------------------------------------------------------|
D|--------76---------00-00202-44-2424--00-00202-44-2424-|
A|-----------44-2424------------------4-----------------|
E|-55-454-----------------------------------------------|

"I wanna love you..."
22.
G|--------------------|
D|--00--00-0202020202-|
A|-4---4--------------|
E|--------------------|

24.
G|-------------------------------------|
D|-------76------------------------7-7-|
A|----------44-2424-55-55757-----------|
E|-55-454--------------------55-45-----|

21.
G|------------------------------------------------------|
D|--------76---------00-00202-44-2424--00-00202-44-2424-|
A|-----------44-2424------------------4-----------------|
E|-55-454-----------------------------------------------|

"I wanna love you..."
22.
G|--------------------|
D|--00--00-0202020202-|
A|-4---4--------------|
E|--------------------|

23.
G|----------|
D|----------|
A|----------|
E|-5~-------|


Lyrics:


Everybody's singing my song
I wanna sing with my generation
Everybody check out my love
I wanna live with you
I wanna live in Jamaica
I wanna live with you
Everybody use marihuana
Cus' everybody wanna be allright
Allright, allright, allright
But allright's not freedom
Fredoom's just freedom

Everybody loves Jamaica
I wanna live in Jamaica with you
Welcome to my Polinesia
I wanna love you...

Everybody canta conmigo
Cantando everybody feels allright
Now and forever te quiero
I wanna live with you
Live in Jamaica
I wanna live with you
Sisters, brothers, children, monkeys



+++++++++++++++++++++++++++++++++
| RaiLeff                       |
| Underground__Dora@Hotmail.Com |
+++++++++++++++++++++++++++++++++
Добавлено: 30.03.2012
Другие материалы по этой песне:
  • Аккорды и текст

Страница создана 30.03.2012
http://primanota.ru/glup/welcome-polinesia-chords.htm
Привет, Гость.
Предлагаем пройти революционный курс по гитаре.
Подарок от PrimaNota.Ru, забирай!