PrimaNota.ru - самый крупный в мире бесплатный архив песенных текстов, аккордов, табулатур и нот


Glup - Chica Light - бас-таба, видео

Регистрация Запомнить меня
Войти через:  Facebook Google Twitter Vk Yandex Mail.ru

Glup - Chica Light - бас-таба, видео

Печатать
Просмотров: 152
++++++++++++++++++++++
| Glup!- Chica Light |
++++++++++++++++++++++


"Ella es tan linda, ella es tan free..."

Tuning: EADG


Intro
"Whoa..."
1.
G|---------------------------------------|
D|-----------------46~--46~--46~--4646---|
A|--7-7-7-7-7-7-767----------------------|
E|-0-0-0-0-0-0---------------------------|

2.
G|---------------------------------------|
D|-------------------------7--7--7--7676-|
A|-44--2244--2244--22424-----------------|
E|------------------------5--5--5--------|

3.
G|---------------------------------------|
D|-----------------46~--46~--46~--4646---|
A|--7-7-7-7-7-7-767----------------------|
E|-0-0-0-0-0-0---------------------------|

4.
G|---------------------------------------|
D|-------------------------7--7--7--7676-|
A|-44--2244--2244--22424-----------------|
E|------------------------5--5--5--------|

Verse
"Ella es una chica light..."
5.
G|---------------------------------------|
D|---------------------------------------|
A|--7-7-7-7-7-7-767----------------------|
E|-0-0-0-0-0-0-----24~--24~--24~--2424---|

6.
G|---------------------------------------|
D|-------------------------7--7--7--7676-|
A|-44--2244--2244--22424-----------------|
E|------------------------5--5--5--------|

"Tiene un novio espacial..."
7.
G|---------------------------------------|
D|---------------------------------------|
A|--7-7-7-7-7-7-767----------------------|
E|-0-0-0-0-0-0-----24~--24~--24~--2424---|

"Le dice que lo ama..."
8.
G|---------------------------------------|
D|-------------------------7--7--7--7676-|
A|-44--2244--2244--22424-----------------|
E|------------------------5--5--5--------|

Chorus
"Miren, mirenla bien..."
9.
G|---------------------------------------|
D|-----------------46~--46~--46~--4646---|
A|--7-7-7-7-7-7-767----------------------|
E|-0-0-0-0-0-0---------------------------|

"Linda, ella es tan free..."
10.
G|---------------------------------------|
D|-------------------------7--7--7--7676-|
A|-44--2244--2244--22424-----------------|
E|------------------------5--5--5--------|

Outro
"Woah..."
11.
G|---------------------------------------|
D|-----------------46~--46~--46~--4646---|
A|--7-7-7-7-7-7-767----------------------|
E|-0-0-0-0-0-0---------------------------|

12.
G|---------------------------------------|
D|-------------------------7--7--7--7676-|
A|-44--2244--2244--22424-----------------|
E|------------------------5--5--5--------|

Verse
"Ella es una chica light..."
13.
G|---------------------------------------|
D|---------------------------------------|
A|---------------------------------------|
E|---------------------------------------|

"Tiene un amigo francés..."
14.
G|---------------------------------------|
D|----------------------------------7676-|
A|---------------------------------------|
E|---------------------------------------|

"Ella siempre huele bien..."
15.
G|---------------------------------------|
D|-----------------46~--46~--46~--4646---|
A|--7-7-7-7-7-7-767----------------------|
E|-0-0-0-0-0-0---------------------------|

"Y siempre está bronciada..."
16.
G|---------------------------------------|
D|-------------------------7--7--7--7676-|
A|-44--2244--2244--22424-----------------|
E|------------------------5--5--5--------|

Chorus
"Miren, mirenla bien..."
17.
G|---------------------------------------|
D|-----------------46~--46~--46~--4646---|
A|--7-7-7-7-7-7-767----------------------|
E|-0-0-0-0-0-0---------------------------|

"Linda, ella es tan free..."
18.
G|---------------------------------------|
D|-------------------------7--7--7--7676-|
A|-44--2244--2244--22424-----------------|
E|------------------------5--5--5--------|

Outro
19.
G|-------------------------------------------|
D|----7~----7~----9~----9~-------------------|
A|-------------------------7~----------------|
E|-5~----5~----7~----7~----------------------|


Lyrics:


Ella es una chica light
Tiene un tatuaje en el pie
Y una buena familia

Tiene un novio espacial
Y dice que lo ama
Pero ella no ama a nadie

Miren, mirenla bien                    
Ella es tan linda, ella es tan free, tan free

Ella es una chica light
Y tiene un amigo francés
Que tiene el pelo fuxia

Ella siempre huele bien
Y siempre está bronciada
Y siempre está drogada



+++++++++++++++++++++++++++++++++
| RaiLeff                       |
| Underground__Dora@Hotmail.Com |
+++++++++++++++++++++++++++++++++
Добавлено: 02.05.2012
Другие материалы по этой песне:
  • Аккорды и текст

Страница создана 02.05.2012
http://primanota.ru/glup/chica-light-chords.htm
Привет, Гость.
Предлагаем пройти революционный курс по гитаре.
Подарок от PrimaNota.Ru, забирай!