PrimaNota.ru - самый крупный в мире бесплатный архив песенных текстов, аккордов, табулатур и нот


Gluecifer - Year Of Manly Living - текст песни, бас-таба, видео

Регистрация Запомнить меня
Войти через:  Facebook Google Twitter Vk Yandex Mail.ru

Gluecifer - Year Of Manly Living - текст песни, бас-таба, видео

Печатать
Просмотров: 123
Verses :


G|-------------------------------------------------------------------------|
D|-------------------------------------------------------------------------|
A|-1------------------4----------------------------------------------------|
E|----------2--------------------------------------------------------------|



Chorus:

G|---------------------------------------------------|
D|---------------------------------------------------|
A|--6-6-6-6-6-6-6-6--3-------------------------------|
E|---------------------3-4-4-4-4-4-4-4-4-4-----------|
    and i know it its a night of liquid gold

G|--------------------------------------------------|
D|--------------------------------------------------|
A|--6-6-6-6-6-6-6-6---------------------------------|
E|-------------------3-3-4-4-4-4-4-4-4-4-4----------|
   gonna take my shit worldwide i'm gonna get it sold




G|------------------------------------|
D|------------------------------------|
A|-----4------------------------------|
E|--1-----4---6-----------------------|
  what a one off night ...
Добавлено: 01.05.2012
Другие материалы по этой песне:
  • Аккорды и текст

Страница создана 22.04.2012
http://primanota.ru/gluecifer/year-of-manly-living-chords.htm
Привет, Гость.
Предлагаем пройти революционный курс по гитаре.
Подарок от PrimaNota.Ru, забирай!