PrimaNota.ru - самый крупный в мире бесплатный архив песенных текстов, аккордов, табулатур и нот


Gloryhammer - Hail To Crail - бас-таба, видео

Регистрация Запомнить меня
Войти через:  Facebook Google Twitter Vk Yandex Mail.ru

Gloryhammer - Hail To Crail - бас-таба, видео

Печатать
Просмотров: 161
Авторы: Paul Templing, Lasse Lammert, Christopher Bowes

Tabbed by: 6METAL6BASSIST6
E-mail: petergriffinav@gmail.com

Tuning: Db

Fb|------------------------------------------------------------------------------------------------|
Cb|------------------------------------------------------------------------------------------------|
Gb|------------------------------------------------------------------------------------4---4---4---|
Db|4-----------------------------------------------------------------------------------------------|

Fb|------------------------------------------------------------------------------------------------|
Cb|------------------------------------------------------------------------------------------------|
Gb|------------------------------------------------------------------------------------------------|
Db|4-----------------------------------------------------------------------------------------------|

Fb|------------------------------------------------------------------------------------------------|
Cb|------------------------------------------------------------------------------------------------|
Gb|------------------------------------------------------------------------------------4---4---4---|
Db|4-----------------------------------------------------------------------------------------------|

Fb|------------------------------------------------------------------------------------------------|
Cb|------------------------------------------------------------------------------------------------|
Gb|------------------------------------------------------------------------------------4-----------|
Db|4-----------------------------------------------------------------------------------------------|

Fb|------------------------------------------------------------------------------------------------|
Cb|------------------------------------------------------------------------------------------------|
Gb|2---2---2---2---2---2---2---2---2---2---2---2---4---4---4---4---4---4---4---4---4---4---4---4---|
Db|------------------------------------------------------------------------------------------------|

Fb|------------------------------------------------------------------------------------------------|
Cb|------------------------------------------------------------------------------------------------|
Gb|------------------------------------------------------------------------------------------------|
Db|4---4---4---4---4---4---4---4---4---4---4---4---4-------4-------2-------4-----------------------|

0:23

Fb|------------------------------------------------------------------------------------------------|.
Cb|------------------------------------------------------------------------------------------------|.
Gb|------------------------------------------------------------------------------------------------|.
Db|4-----------------------------------------------------------------------------------------------|.
                                                                                                   .
Fb|------------------------------------------------------------------------------------------------|.
Cb|------------------------------------------------------------------------------------------------|.
Gb|2-----------------------------------------------------------------------------------------------|.
Db|------------------------2-----------------------4-----------4---4---4---4---4---4---4---4---4---|.
                                                                                                   . x2
Fb|------------------------------------------------------------------------------------------------|.
Cb|------------------------------------------------------------------------------------------------|.
Gb|------------------------------------------------------------------------------------------------|.
Db|4-----------------------------------------------------------------------------------------------|.
                                                                                                   .
Fb|------------------------------------------------------------------------------------------------|.
Cb|------------------------------------------------------------------------------------------------|.
Gb|2-----------------------4-----------------------6-----------------------------------------------|.
Db|------------------------------------------------------------------------------------------------|.

Fb|------------------------------------------------------------------------------------------------|
Cb|------------------------------------------------------------------------------------------------|
Gb|7-----------------------------------------------2-----------------------------------------------|
Db|------------------------------------------------------------------------------------------------|

Fb|------------------------------------------------------------------------------------------------|
Cb|------------------------------------------------------------------------------------------------|
Gb|4-----------------------------------------------6-----------------------------------------------|
Db|------------------------------------------------------------------------------------------------|

Fb|------------------------------------------------|
Cb|------------------------------------------------|
Gb|6---6---6---6---6---6---6---6---6---6---6---6---|
Db|------------------------------------------------|

1:03

Fb|------------------------------------------------------------------------------------------------|.
Cb|------------------------------------------------------------------------------------------------|.
Gb|--------------------------------------------------------------------------------1-------2-------|.
Db|4-----------4---4---4---4-----------2-----------4-----------4---4---4---4-----------------------|.
                                                                                                    . x4
Fb|------------------------------------------------------------------------------------------------|.
Cb|------------------------------------------------------------------------------------------------|.
Gb|------------------------2-----------------------------------------------------------------------|.
Db|0-----------------------------------------------2-----------2---2---2---2---2---2---2---2---2---|.

Fb|------------------------------------------------------------------------------------------------|
Cb|------------------------------------------------------------------------------------------------|
Gb|4-----------4---4---4---4-----------4---4---4---------------------------------------------------|
Db|------------------------------------------------4-----------4---4---4---4-----------4---4---4---|

Fb|------------------------------------------------------------------------------------------------|
Cb|------------------------------------------------------------------------------------------------|
Gb|------------------------------------------------6---6---6---6---6---6---6-----------------------|
Db|5-----------5---5---5---5-----------5---5---5-----------------------------------4-------2-------|

Fb|------------------------------------------------------------------------------------------------|
Cb|------------------------------------------------------------------------------------------------|
Gb|------------------------------------------------------------------------------------------------|
Db|4-----------------------------------------------------------------------------------------------|

Repeat from 0:23





3:06

Fb|------------------------------------------------------------------------------------------------|
Cb|------------------------------------------------------------------------------------------------| x4
Gb|------------------------------------------------------------------------4-----------4---4---4---|
Db|4-----------4---4---4---4-----------4---4---4---2-----------2---2---2---------------------------|

Fb|------------------------------------------------|
Cb|------------------------------------------------|
Gb|------------------------------------------------|
Db|4---4---4---4---4---4---4-----------------------|

3:22

Fb|------------------------------------------------------------------------------------------------|.
Cb|------------------------------------------------------------------------------------------------|.
Gb|4-----------4---4---4---4-----------4---4---4---------------------------------------------------|.
Db|------------------------------------------------4-----------4---4---4---4-----------4---4---4---|.
                                                                                                    . x2
Fb|------------------------------------------------------------------------------------------------|.
Cb|------------------------------------------------------------------------------------------------|.
Gb|2-----------2---2---2---2-----------2---2---2---------------------------------------------------|.
Db|------------------------------------------------2-----------2---2---2---2-----------2---2---2---|.

Fb|------------------------------------------------------------------------------------------------|
Cb|------------------------------------------------------------------------------------------------|
Gb|------------------------------------------------6-----------6---6---6---6-----------6---6---6---|
Db|4-----------4---4---4---4-----------4---4---4---------------------------------------------------|

Fb|------------------------------------------------------------------------------------------------|
Cb|------------------------------------------------------------------------------------------------|
Gb|2-----------2---2---2---2-----------2---2---2---5---5---5---5---5---5---5---5---5---5---5---5---|
Db|------------------------------------------------------------------------------------------------|

Fb|------------------------------------------------------------------------------------------------|
Cb|------------------------------------------------------------------------------------------------|
Gb|7-----------------------------------------------2-----------------------------------------------|
Db|------------------------------------------------------------------------------------------------|

Fb|------------------------------------------------------------------------------------------------|
Cb|------------------------------------------------------------------------------------------------|
Gb|4-----------------------------------------------6-----------------------------------------------|
Db|------------------------------------------------------------------------------------------------|

Fb|------------------------------------------------|
Cb|------------------------------------------------|
Gb|6---6---6---6---6---6---6---6---6---6---6---6---|
Db|------------------------------------------------|

3:54

Fb|------------------------------------------------------------------------------------------------|.
Cb|------------------------------------------------------------------------------------------------|.
Gb|--------------------------------------------------------------------------------1-------2-------|.
Db|4-----------4---4---4---4-----------2-----------4-----------4---4---4---4-----------------------|.
                                                                                                    . x4
Fb|------------------------------------------------------------------------------------------------|.
Cb|------------------------------------------------------------------------------------------------|.
Gb|------------------------2-----------------------------------------------------------------------|.
Db|0-----------------------------------------------2-----------2---2---2---2---2---2---2---2---2---|.

Fb|------------------------------------------------------------------------------------------------|
Cb|------------------------------------------------------------------------------------------------|
Gb|4-----------4---4---4---4-----------4---4---4---------------------------------------------------|
Db|------------------------------------------------4-----------4---4---4---4-----------4---4---4---|

Fb|------------------------------------------------------------------------------------------------|
Cb|------------------------------------------------------------------------------------------------|
Gb|------------------------------------------------6---6---6---6---6---6---6---6---6---6---6---6---|
Db|5-----------5---5---5---5-----------5---5---5---------------------------------------------------|

Fb|----------------------------------------------------|
Cb|----------------------------------------------------|
Gb|6---6---6---6---6---6---6---------------------------|
Db|--------------------------------4-------2-------4---|
Добавлено: 01.09.2015
Другие материалы по этой песне:
  • Аккорды и текст

Страница создана 01.09.2015
http://primanota.ru/gloryhammer/hail-to-crail-chords.htm
Привет, Гость.
Предлагаем пройти революционный курс по гитаре.
Подарок от PrimaNota.Ru, забирай!