PrimaNota.ru - самый крупный в мире бесплатный архив песенных текстов, аккордов, табулатур и нот


Gloryhammer - Beneath Cowdenbeath - бас-таба, видео

Регистрация Запомнить меня
Войти через:  Facebook Google Twitter Vk Yandex Mail.ru

Gloryhammer - Beneath Cowdenbeath - бас-таба, видео

Печатать
Просмотров: 170
Авторы: Lasse Lammert

Tabbed by: 6METAL6BASSIST6
E-mail: petergriffinav@gmail.com

Tuning: DGCF

F|----------------------------------------------------------------|
C|----------------------------------------------------------------|
G|7-------------------------------------------5-------5-------5-5-|
D|----------------------------------------------------------------|

F|----------------------------------------------------------------|
C|----------------------------------------------------------------|
G|7---------------------------------------------------------------|
D|----------------------------------------------------------------|

F|----------------------------------------------------------------|
C|----------------------------------------------------------------|
G|7-----------------------------------------------------------5---|
D|----------------------------------------------------------------|

F|----------------------------------------------------------------|
C|----------------------------------------------------------------|
G|3-------------------------------2-------------------------------|
D|----------------------------------------------------------------|

0:10

F|----------------------------------------------------------------|
C|----------------------------------------------------------------|
G|7---7-7-7---7-7-7---7-7-7---7-7-7---7-7-7-------5---5-5-5-------|
D|----------------------------------------------------------------|

F|----------------------------------------------------------------|
C|----------------------------------------------------------------|
G|7---7-7-7---7-7-7---7-7-7---7-7-7---7-7-7-------2---2-2-2-------|
D|----------------------------------------------------------------|

F|----------------------------------------------------------------|
C|----------------------------------------------------------------|
G|3---3-3-3---3-3-3---3-3-3---3-3-3---3-3-3-----------------------|
D|------------------------------------------------3---3-3-3-------|

F|----------------------------------------------------------------|
C|----------------------------------------------------------------|
G|0---0-0-0---0-0-0---0-0-0-------2---2-2-2---2-2-2---2-2-2-------|
D|----------------------------------------------------------------|

F|----------------------------------------------------------------|
C|----------------------------------------------------------------|
G|7---7-7-7---7-7-7---7-7-7---7-7-7---7-7-7-------5---5-5-5-------|
D|----------------------------------------------------------------|

F|----------------------------------------------------------------|
C|----------------------------------------------------------------|
G|7---7-7-7---7-7-7---7-7-7---7-7-7---7-7-7-------2---2-2-2-------|
D|----------------------------------------------------------------|

F|----------------------------------------------------------------|
C|----------------------------------------------------------------|
G|3---3-3-3---3-3-3---3-3-3---3-3-3---3-3-3-----------------------|
D|------------------------------------------------3---3-3-3-------|

F|----------------------------------------------------------------|
C|----------------------------------------------------------------|
G|0---0-0-0---0-0-0---0-0-0-------2---2-2-2-------2---------------|
D|----------------------------------------------------------------|

0:32

F|------------------------------------------------------------------------------------------------|
C|------------------------------------------------------------------------------------------------|
G|------------------------------------------------------------------------------------------------|
D|0-----0-0-0-0-----0-0-0-0-----0-0-0-0-----0-0-0-2-----2-2-2-2-----2-2-2-2-----2-2-2-2-----2-2-2-|

F|------------------------------------------------------------------------------------------------|
C|------------------------------------------------------------------------------------------------|
G|------------------------------------------------3-----3-3-3-3-----3-3-3-5-----5-5-5-5---5-5-----|
D|3-----3-3-3-3-----3-3-3-3-----3-3-3-3---3-3-----------------------------------------------------|

0:43

F|------------------------------------------------------------------------------------------------|
C|------------------------------------------------------------------------------------------------|
G|7-----7-7-7-7-----7-7-7-7-----7-7-7-7-----7-7-7-3-----3-3-3-3-----3-3-3-3---3---3---2---2---2---|
D|------------------------------------------------------------------------------------------------|

F|------------------------------------------------------------------------------------------------|
C|------------------------------------------------------------------------------------------------|
G|0-----0-0-0-0-----0-0-0-0-----0-0-0-0-----0-0-0-2-----2-2-2-2-----2-2-2-2-----2-2-2-2-----------|
D|------------------------------------------------------------------------------------------------|

F|------------------------------------------------------------------------------------------------|
C|------------------------------------------------------------------------------------------------|
G|7-----7-7-7-7-----7-7-7-7-----7-7-7-7-----7-7-7-3-----3-3-3-3-----3-3-3-3---3---3---2---2---2---|
D|------------------------------------------------------------------------------------------------|

F|------------------------------------------------------------------------------------------------|
C|------------------------------------------------------------------------------------------------|
G|0-----0-0-0-0-----0-0-0-0-----0-0-0-0-----0-0-0-2-----2-2-2-2-----2-2-2-2-----------2-----------|
D|------------------------------------------------------------------------------------------------|

F|------------------------------------------------------------------------------------------------|
C|------------------------------------------------------------------------------------------------|
G|7-----7-7-7-7-----7-7-7-7-----7-7-7-7-----7-7-7-3-----3-3-3-3-----3-3-3-3---3---3---2---2---2---|
D|------------------------------------------------------------------------------------------------|

F|------------------------------------------------------------------------------------------------|
C|------------------------------------------------------------------------------------------------|
G|0-----0-0-0-0-----0-0-0-0-----0-0-0-0-----0-0-0-2-----2-2-2-2-----2-2-2-2-----2-2-2-2-----------|
D|------------------------------------------------------------------------------------------------|

F|------------------------------------------------------------------------------------------------|
C|------------------------------------------------------------------------------------------------|
G|7-----7-7-7-7-----7-7-7-7-----7-7-7-7-----7-7-7-3-----3-3-3-3-----3-3-3-3---3---3---2---2---2---|
D|------------------------------------------------------------------------------------------------|

F|------------------------------------------------------------------------------------------------|
C|------------------------------------------------------------------------------------------------|
G|0-----0-0-0-0-----0-0-0-0-----0-0-0-0-----0-0-0-2-----2-2-2-2-----2-2-2-2-----------------------|
D|------------------------------------------------------------------------------------------------|

1:26

F|----------------------------------------------------------------|.
C|----------------------------------------------------------------|.
G|5-/-7---7---7---7---7---7---7---7---7---7---7---7---7---7-------|.
D|----------------------------------------------------------------|.
                                                                   . x2
F|----------------------------------------------------------------|.
C|----------------------------------------------------------------|.
G|3---3---3---3---3---3---3-------2---2---2---2---2---2---2-------|.
D|----------------------------------------------------------------|.

F|----------------------------------------------------------------|.
C|----------------------------------------------------------------|.
G|5-/-7---7---7---7---7---7---7---7---7---7---7---7---7---7-------|.
D|----------------------------------------------------------------|.
                                                                   .
F|----------------------------------------------------------------|.
C|----------------------------------------------------------------|.
G|3---3---3---3---3---3---3-------2---2---2---2---2---2---2-------|.
D|----------------------------------------------------------------|.
                                                                   . x2
F|----------------------------------------------------------------|.
C|----------------------------------------------------------------|.
G|5-/-7---7---7---7---7---7---7---7---7---7---7---7---7---7-------|.
D|----------------------------------------------------------------|.
                                                                   .
F|----------------------------------------------------------------|.
C|----------------------------------------------------------------|.
G|----------------------------5-------5---5-------6---6---6-------|.
D|3---3---3---3---3---3---3---------------------------------------|.

1:59

F|----------------------------------------------------------------|
C|----------------------------------------------------------------|
G|----------------------------------------------------------------|
D|0---0---0-------0---0---0-------0---0---0-------0---0---0-------|

F|----------------------------------------------------------------|
C|----------------------------------------------------------------|
G|3---3---3-------3---3---3-------3---3---3-------2---2---2-------|
D|----------------------------------------------------------------|

F|----------------------------------------------------------------|
C|----------------------------------------------------------------|
G|0---0---0-------0---0---0-------0---0---0-------0---0---0-------|
D|----------------------------------------------------------------|

F|----------------------------------------------------------------|
C|----------------------------------------------------------------|
G|2---2---2-------2---2---2-------2---2---2-------2---2---2-------|
D|----------------------------------------------------------------|

F|----------------------------------------------------------------|
C|----------------------------------------------------------------|
G|----------------------------------------------------------------|
D|0---0---0-------0---0---0-------0---0---0-------0---0---0-------|

F|----------------------------------------------------------------|
C|----------------------------------------------------------------|
G|3---3---3-------3---3---3-------3---3---3-------2---2---2-------|
D|----------------------------------------------------------------|

F|----------------------------------------------------------------|
C|----------------------------------------------------------------|
G|0---0---0-------0---0---0-------0---0---0-------0---0---0-------|
D|----------------------------------------------------------------|

F|----------------------------------------------------------------|
C|----------------------------------------------------------------|
G|2---------------------------------------------------------------|
D|----------------------------------------------------------------|

F|----------------------------------|
C|----------------------------------|
G|7---7-7-7-7---------------5---7---|
D|----------------------------------|
Добавлено: 01.09.2015
Вам также может быть интересно:
Другие материалы по этой песне:

Страница создана 01.09.2015
http://primanota.ru/gloryhammer/beneath-cowdenbeath-chords.htm
Привет, Гость.
Предлагаем пройти революционный курс по гитаре.
Подарок от PrimaNota.Ru, забирай!