PrimaNota.ru - самый крупный в мире бесплатный архив песенных текстов, аккордов, табулатур и нот


Gloryhammer - Angus Mcfife - таба, видео

Регистрация Запомнить меня
Войти через:  Facebook Google Twitter Vk Yandex Mail.ru

Gloryhammer - Angus Mcfife - таба, видео

Печатать
Просмотров: 257
Авторы: Paul Templing, Thomas Winkler, Lasse Lammert, Christopher Bowes

-------------------------------------------------------------------------------
                             Angus Mcfife - Glory Hammer
-------------------------------------------------------------------------------
Tabbed by: MilesAK
E-mail: MilesAK@hotmail.co.uk

Tuning: Standard

Chorus/Intro Riff:

   He is the prince of...                    Heart of steel...   Angus Mcfife...
e|---------------------------------------------------------------------------|
B|---------------------------------------------------------------------------|
G|-5--------------------------3--5-------------------------5------5--3-----5-|
D|-5--------------------------3--5-----------6--5----------5------5--3--5--5-|
A|-3--------------------------1--3-----------6--5----------3------3--1--5--3-|
E|-------------------------------------------4--3-----------------------3----|
  (Throw tonnes of vibrato on this riff)
e|-------------------15-15-16-15-13-------------13---------------------------|
B|-13-13-15-16-13-16----------------16-15-15-16----16-15-13-15-11-13---------|
G|--------------------------------------------------------------------12-15--| (x2)
D|---------------------------------------------------------------------------|
A|---------------------------------------------------------------------------|
E|---------------------------------------------------------------------------|

Verse:
   Across the wastelands...A raging..  x x   x x   x             x x   x x   x
e|-----------------------------------------------------------------------------------|
B|-----------------------------------------------------------------------------------|
G|-5-------------------------------------------------5-------------------------------|
D|-5-----------------------11\6------6-----6-----6---5----6----6-----6-----6---5--3*-|
A|-3-----------------------11\6------6-----6-----6---3----6----6-----6-----6---5-----|
E|-------------------------9-\4------4-4-4-4-4-4-4-4------4----4-4-4-4-4-4-4-4-3-----|

Chorus 2:

       xxx xxx xxx                 xxx xxx xxx xxx
e|---------------------------------------------------------------------------|
B|---------------------------------------------------------------------------|
G|-5---------------3------------5------------------3---4---------------------|
D|-5---------------3-------6-5--5------------------3-5-5---------------------| (x2)
A|-3---333-333-333-1-------6-5--3--333-333-333-333-1-5-3---------------------|
E|-------------------------4-3-----------------------3-----------------------|

Solo:

Not at all sure about this part; hard to tell keyboard from guitar. Here's what I got. Use with 
caution.

   x x x   x x x   x x x   x x x   x x x   x x x   x x x   x x x
e|---------------------------------------------------------------------------|
B|---------------------------------------------------------------------------|
G|-------8-------8-------8-------8-------8-------8-------8-------8-----------|
D|---9-------9-------9-------9-------8-------8-------8-------8---------------|
A|-7---7---7---7---7---7---7---7---7---7---7---7---7---7---7---7-------------|
E|---------------------------------------------------------------------------|
   x x   x x x   x x x     x  x x     x  x x   x x x   x x   x x x
e|---------------------------------------------------------------------------|
B|-----9-------9--------11---------11--------8-------8-----8-------8---------|
G|---8---8---8---8---10----10---10----10-7-7---7-7-7---5-5---5-5-5-----------|
D|-6-------6-------8----------8----------------------------------------------|
A|---------------------------------------------------------------------------|
E|---------------------------------------------------------------------------|
   x  x  x  x  x  x  x  x  x  x  x  x  x  x  x  x  x  x  x  x  x  x  x  x  x  x  x  x  x  x  x  x
e|--------------------------------------------------------------------------------------------------|
B|--------------------------------------------------------------------------------------------------|
G|--------------------------------------------------------------------------------------------------|
D|--------------------------------------------------------------------------------------------------|
A|-10-10-10-10-10-10-10-10-10-10-10-10-10-10-10-10-13-13-13-13-13-13-13-13-13-13-13-13-13-13-13-13--|
E|-8--8--8--8--8--8--8--8--8--8--8--8--8--8--8--8--11-11-11-11-11-11-11-11-11-11-11-11-11-11-11-11--|

e|---------------------------------------------------------------------------|
B|---------------------------------------------------------------------------|
G|-12-10-8----8---------8-------8----------8---------------------------------|
D|---------12---10-8-10---10-10---10-10-10-----------------------------------|
A|---------------------------------------------------------------------------|
E|---------------------------------------------------------------------------|

Most of the solo is being played with very heavy mutes and so wasn't easy to figure out, and the 
small 
tapping bit at the end I was unable to work out. But besides the odd bit in the solo, this all sounds 
accurate and I hope it's helpful. :)
************************************

| /   slide up
| \   slide down
| h   hammer-on
| p   pull-off
| ~   vibrato
| +   harmonic
| x   Mute note
| b   Bend
| pb  Pre-bend
| br  Bend release
| pbr Pre-bend release
| brb Bend release bend

************************************
Добавлено: 13.08.2015
Другие материалы по этой песне:

Страница создана 13.08.2015
http://primanota.ru/gloryhammer/angus-mcfife-chords.htm
Привет, Гость.
Предлагаем пройти революционный курс по гитаре.
Подарок от PrimaNota.Ru, забирай!