PrimaNota.ru - самый крупный в мире бесплатный архив песенных текстов, аккордов, табулатур и нот


Gloria Gaither - The King Is Coming - таба, видео

Регистрация Запомнить меня
Войти через:  Facebook Google Twitter Vk Yandex Mail.ru

Gloria Gaither - The King Is Coming - таба, видео

Печатать
Просмотров: 42
-------------------------------------------------------------------------------
                             the king is coming - Band Name
-------------------------------------------------------------------------------
Tabbed by:
E-mail:
key of Ab
Tuning:E-A-D-G-B-e

e|---------------------------------------------------------------------------|
B|---------------------------------------------------------------------------|
G|---------1---1---1--1--1---1----1--1-----1--1-----0----0----0--1---3----0--|
D|-1--1---------------------------------3--3--3-----1----1----1--1-----------|
A|---------3---3---3--3--3--------------4----------------------------4----4--|
E|---------------------------------------------------------------------------|

  oh the King is coming the King is coming i just heard the trumpet sounding

e|---------------------------------------------------------------------------|
B|---------------------------------------1--1--------------------------------|
G|-----1---1----1-----------------1---1--1--1---3----1---1--1--------1----0--|
D|-1---------------3--1---1--1----1---1---------4----3---1-----3-----3----1--|
A|-----3---3-------4--3----------------------------------------4-------------|
E|---------------------------------------------------------------------------|

  and now His face I see oh the King is coming the King is coming praise God 

e|---------------------------------------------------------------------------|
B|------3--1-----------------------------------------------------------------|
G|-------------3---1---------------------------------------------------------|
D|-1----3--1-----------------------------------------------------------------|
A|-------------4---3---------------------------------------------------------|
E|---------------------------------------------------------------------------|
  He's coming for me


************************************

| /   slide up
| \   slide down
| h   hammer-on
| p   pull-off
| ~   vibrato
| +   harmonic
| x   Mute note
| b   Bend
| pb  Pre-bend
| br  Bend release
| pbr Pre-bend release
| brb Bend release bend

************************************
Добавлено: 06.04.2016
Вам также может быть интересно:
Другие материалы по этой песне:
  • Аккорды и текст

Страница создана 06.04.2016
http://primanota.ru/gloria-gaither/king-is-coming-chords.htm
Привет, Гость.
Предлагаем пройти революционный курс по гитаре.
Подарок от PrimaNota.Ru, забирай!