PrimaNota.ru - самый крупный в мире бесплатный архив песенных текстов, аккордов, табулатур и нот


Gloria Estefan - No Llores - текст песни, таба, видео

Регистрация Запомнить меня
Войти через:  Facebook Google Twitter Vk Yandex Mail.ru

Gloria Estefan - No Llores - текст песни, таба, видео

Печатать
Просмотров: 57
Esta canción la interpreta Floria Stefan junto con otros grandes artistas
(como puedn ver en el video clip), tales como Carlos Santana y
José Feliciano!!!

Todo el acompañamiento de la canción es: A#m - D#m - F.
Pueden usar un capo en el 1er. traste y las notas: Am - Dm - F.
El ritmo es similar al de Corazón Espinado.

Intro
e|---------------------------------------------------
B|--------------------------6-7-6-7-6-9-8-7-6-7-6..--
G|-8/10.-8-6-6./8/6/5---6-8--------------------------
D|---------------------------------------------------
A|---------------------------------------------------
E|---------------------------------------------------

e|-12-13..-------------12-13-13..-14-13/14/13-11-13.--
B|---------10-10-10-10--------------------------------
G|----------------------------------------------------
D|----------------------------------------------------
A|----------------------------------------------------
E|----------------------------------------------------

e|-9---------------9/------9-<11>..--9--------------------
B|---11-11.-11.-11------11-------------11-11-11.-11.-11.--
G|--------------------------------------------------------
D|--------------------------------------------------------
A|--------------------------------------------------------
E|--------------------------------------------------------

e|---------9-------------------------------------|
B|-9----11---11-9-11-9---------------------------|
G|---10------------------8-6---6-----------------|
D|---------------------------8---8-6-------------|
A|-----------------------------------8-7-6-4.----|
E|--------------------------------------------6--|


No llores, no llores, no llores, no llores


                          (Riff 1)
Si vas a entregar el alma
                        (Riff 2)
hazlo libre de temores
                             (Riff 3)
si del amor mucho se aprende
se aprende más de los errores, ay!
ay! No llores, no llores, no llores, no llores
Deja de llorar, deja de llorar, deja de llorar
ay! no llores, no, no que va
deja de sufrir y suelta los temores
ay, no llores

                          (Riff 4)
Si un día no me quisieras
                          (Riff 5)
dilo de frente y sin traiciones
                          (Riff 6)
toda la dicha que vivimos
se queda en nuestros corazones

No llores, no llores, no llores, no llores

Hay no llores por mí, mi amor
no llores por mí, no llores por mí, no llores más
eh! No llores por mí
no, no llores.

                          (Riff 7)
El día que yo me muera
                          (Riff 8)
no quiero que me manden flores
                          (Riff 9)
lo que me des, dámelo en vida
no habrá razón pa' que me llores.

No llores, no llores, no llores, no llores

Ay no llores, no llores por mí
no hay razón para que llores así
no te preocupes deja el llanto y escucha mi canto que dice así.

Solo:
e|------------------------------<9>/9----------8/---------------
B|-<9>-<9>-<9>/9----------------------11-11-11------------------
G|---------------10-8-8/10-10.----------------------------------
D|--------------------------------------------------------------
A|--------------------------------------------------------------
E|--------------------------------------------------------------

e|-8-8-8-9-9-9-11------18-20-21-<21>.-<21>.-<21>.---------------
B|------------------18------------------------------------------
G|--------------------------------------------------------------
D|--------------------------------------------------------------
A|--------------------------------------------------------------
E|--------------------------------------------------------------

e|-21-18-----------------------13->>>>>>>>>--<16>.-<16>.-<16>.--
B|-------21-18----------------<16>>>>>>>>>>---------------------
G|-------------<20>-20-18---------------------------------------
D|------------------------20------------------------------------
A|--------------------------------------------------------------
E|--------------------------------------------------------------

e|-16-13----13-------------------------------|
B|-------16----14-14-14-14-14-14--16---------|
G|-------------15-15-15-15-15-15-----15-15.--|
D|-------------------------------------------|
A|-------------------------------------------|
E|-------------------------------------------|

No llores por mí, sólo por mí
si no disfrutas de la vida,
nunca podrás ser feliz,

No llores por mí, sólo por mí
                                                 (Bonus Riff!!)
Que la vida es muy corta, pa' seguir sufriendo así

Ay no llores, no llores, no llores más

Ay la vida es pa' gozarla na' más

Oye mi amor lo que yo quiero es
tú me digas que tú a mi no me vas a
llorar jamás, eh, eh.


RIFFS
-----

Riff 1
e|------------------|
B|------------------|
G|-11-10-8/10-8/10.-|
D|------------------|
A|------------------|
E|------------------|

Riff 2
e|----8-9-8/9/8.-|
B|---------------|
G|-10------------|
D|---------------|
A|---------------|
E|---------------|

Riff 3
e|-------------------------|
B|-------6-7-6-7-6-9-6-7-6-|
G|-6-6-8-------------------|
D|-------------------------|
A|-------------------------|
E|-------------------------|

Riff 4
e|---------------------|
B|---------------------|
G|-10-11-10-8/10-8/10.-|
D|---------------------|
A|---------------------|
E|---------------------|

Riff 5
e|-----6----------|
B|-4/6------------|
G|-------8-6------|
D|-----------8-8.-|
A|----------------|
E|----------------|

Riff 6
e|------------------------------|
B|------------------------------|
G|----8-10-11.-10-11-10-8-10-10-|
D|-11---------------------------|
A|------------------------------|
E|------------------------------|

Riff 7
e|-------6----------------|
B|-----6---9-6------------|
G|-<8>---------<8>-8-6./8-|
D|------------------------|
A|------------------------|
E|------------------------|

Riff 8
e|-------6-------------------|
B|-----6---9-6---------------|
G|-<8>---------<8>-8-6-8-6---|
D|-------------------------8-|
A|---------------------------|
E|---------------------------|

Riff 9
e|-------------------9-|
B|------11-11-9-9/11---|
G|-8/10----------------|
D|---------------------|
A|---------------------|
E|---------------------|

*Bonus Riff - Esta pequeña parte la hace José Feliciano
(Rápido y varias veces!)
e|----8-11-12-11-8-|
B|-11--------------|
G|-----------------|
D|-----------------|
A|-----------------|
E|-----------------|


                   --------
                º-| ¤    ¤ |-º
                º-|  LuïS  |-º
                º-| ¤    ¤ |-º
                          /
                    |    |
        ·===========================·
        | luis_6cuerdas@ |
        ·===========================·

*Si hubiese algún error o alguna duda, escribe al mail o avisa por MSN*
Добавлено: 08.03.2016
Другие материалы по этой песне:
  • Аккорды и текст

Страница создана 31.05.2012
http://primanota.ru/gloria-estefan/no-llores-chords.htm
Привет, Гость.
Предлагаем пройти революционный курс по гитаре.
Подарок от PrimaNota.Ru, забирай!