PrimaNota.ru - самый крупный в мире бесплатный архив песенных текстов, аккордов, табулатур и нот


Gloc 9 - Martilyo - аккорды и текст, таба, видео

Регистрация Запомнить меня
Войти через:  Facebook Google Twitter Vk Yandex Mail.ru

Gloc 9 - Martilyo - аккорды и текст, таба, видео

Печатать
Просмотров: 218
Martilyo
Gloc 9
Band / Artist: Gloc 9 ft. Letter Day Story
Song Title: Martilyo
Tabber: NaPoleon07

This is NaPoleon07 from Bauan, Batangas
Favorite ko itong kantang ito...
Hope you like it and enjoy! =)

Intro: Am-F(2x)
|--------------1-----------------------|
|---1----------1-----------------------|
|---2----------2-----------------------|
|---2----------3-----------------------|
|--------------3-----------------------|
|--------------1-----------------------|

Verse: Am-F-G
|--------------1----------3--------|
|---1----------1----------3--------|
|---2----------2-------------------|
|---2----------3-------------------|
|--------------3----------2--------|
|--------------1----------3--------|
 Am
Dito sa amin na kung san nanggaling

 F           G
Mga makatang ulam at kanin

 Am 
Lamang ang bayad pero pumapayag

 F                 G
Upang masubukan at mapatunayan


Chorus: Am-F-G
|--------------1----------3--------|
|---1----------1----------3--------|
|---2----------2-------------------|
|---2----------3-------------------|
|--------------3----------2--------|
|--------------1----------3--------|
 Am                         F
Lagi mong tatandaan, ganito lamang

             G
Ang dapat na ginagawa mo

 Am
Huwag mong palalampasin ang pagkakataon

 F                          G
Kailangang pukpokin ang pako para bumaon


Gloc 9: Rap (Am-F only)

Narito nang muli ang isang taong
Di nag atubili na aking mabago ang
Yong pag tingin sa mga taong humahawak ng
Mikropono kahit maputik ay humahakbang
Lumalakas sa bawat pawis na pumapatak
Bawat tunog ng palakpak saki'y tumatatak
Pero di tumaas aking mga paa
Nakatutong sa lupa dahil alam ko na
Akoy nasa pinas may pila sa bigas
Ilan lang ang sikat na bulsa'y di butas
Para di mautas dapat ay matigas
Ang yong muka kahit panoy matikman ang
Katas Ng ubas ang problemay lutas
May maayos na tela maong di kupas
Ang sabi mo sakin Ay hindi ko na makakaya
Pang Habulin Mga pangarap
Ay ipunin At pagkatapos Ay higupin

Higupin ng higupin
Parang baso na may yelo
Iilang salita pa ba ang dapat kong banggaitin
Na laging bumebwelo
Bueno
Yaman din lamang na akoy narito na sige
Pakinggan ang mga bagong nasulat kong
Kanta

(Repeat Chorus)


Bridge: Am-F-G-Am-F-G-C-G-Am-F(Break)-G(Break)
|---------|-----1-----|-----3----|---------|---1---|---3---|--------|---3---|
|---1-----|-----1-----|-----3----|----1----|---1---|---3---|---1----|---3---|
|---2-----|-----2-----|----------|----2----|---2---|-------|--------|-------|
|---2-----|-----3-----|----------|----2----|---3---|-------|---2----|-------|
|---------|-----3-----|-----2----|---------|---3---|---2---|---3----|---2---|
|---------|-----1-----|-----3----|---------|---1---|---3---|--------|---4---|

 ---------|-----1------------|----3------------|
 ---1-----|-----1------------|----3------------|
 ---2-----|-----2------------|-----------------|
 ---2-----|-----3-(Break)----|-------(Break)---|
 ---------|-----3------------|----2------------|
 ---------|-----1------------|----3------------|
 Am   F   G  
Hindi mo, kayang pigilan

 Am   F   G           C
Hindi mo, kayang galusan

    G                  Am
Ang puso kong balot ng bakal

     F(Break)    G(Break)
Na patuloy, patuloy sa pagtibok


Gloc9: Rap (Am-F only)

Humihinga kahit amoy bulok
Walang tigil sa pag subok
Kahit parang gabuhok
Lang ang posibilidad
Mula sa murang edad sa pawis laging babad
Kumakayod sa syudad
Akinse o atrenta kilo o delata
Kanin na mas mura pa ang cd na pirata
Ng bata na si pollisco
Si gloc ba kamo mismo
Bawat plema ng pangngutya ay tiniis ko

Listo pa rin kahit na inaantok
Baka may mapaginipan akong kanta
Na patok
Sa masa na para bang itoy nag sisilbing
Pang lunas
Di maalis parang sibuyas kahit na ikay mag
Hugas kamay
Gamit ang baretang sabon ni inay
Bawat salitang ginagamit ang isip moy
Tinatangay
Ng tula ko tandaan wala pang nagbabago
Pag pinalo ng martilyo lulubog ang pako

(Repeat Verse)
(Repeat Chorus)


For Comments, just mail me at napo0791@yahoo.com
Please Rate! Thankyou! =)
Добавлено: 11.04.2012
Другие материалы по этой песне:
  • Аккорды и текст

Страница создана 11.04.2012
http://primanota.ru/gloc-9/martilyo-chords.htm
Привет, Гость.
Предлагаем пройти революционный курс по гитаре.
Подарок от PrimaNota.Ru, забирай!