PrimaNota.ru - самый крупный в мире бесплатный архив песенных текстов, аккордов, табулатур и нот


Gloc 9 - Kabit - таба, видео

Регистрация Запомнить меня
Войти через:  Facebook Google Twitter Vk Yandex Mail.ru

Gloc 9 - Kabit - таба, видео

Печатать
Просмотров: 105
KABET by GAGONG RAPPER from their album UNKNOWN

Ear Tabber by Alyana Jane Eingzner and I'm 14 this comming 11th of May

E-mail me at be_silent@yahoo.com


Guitar Effect Settings:

Drive - Clean or Acoustic

Patch Name - Chorus


Guitar Legends:                                   JUST LISTEN(BEHRINGER)EARS

x dead note

v vibrato                               I'm playing keyboards and I know the keys of this song.

/ slide in                              In this song,2 keyboardist are playing,One for harmony

                                        and one for the progression.
Guitar Tuning:

Standard - eBGDAE(Low to High)


Guitar Chords for the whole song:

   C    Bm    A     G     F
e|-0-  -2--  -0--  -3--  -1---|      
B|-1-  -3--  -2--  -3--  -1---| 
G|-0-  -4--  -2--  -0--  -2---|      
D|-2-  -4--  -2--  -0--  -3---|
A|-3-  -2--  -0--  -2--  -3---|      
E|-x-  -x--  -x--  -3--  -1---|

Intro
Guitar 1
e|------------------------3----------3----------------------------------------------------------|
B|---8-6-5\3----8-6-5-3-5----3---3-5---3---3-5----------------------------------------5-3-------|
G|-5---------5-----------------5---------5-----5---------------------9-7-5-4-5v--5-7------5-4-5-|
D|------------------------------------------------5-7v--10-9-10v--10----------------------------|
A|----------------------------------------------------------------------------------------------|
E|----------------------------------------------------------------------------------------------|

Guitar 2
e|-----------------------------------------------------------------|
B|-5-5-5-5--5-5-5-5--5-5-5-5--5-5-5-5--1-1-1-1--5-5-5-5--5-5-5-5-5-|
G|-5-5-5-5--4-4-4-4--2-2-2-2--5-5-5-5--2-2-2-2--5-5-5-5--5-5-5-5-5-|
D|----------------------------5-5-5-5--3-3-3-3--5-5-5-5------------|
A|-----------------------------------------------------------------|
E|-----------------------------------------------------------------|

Verse
Guitar 1
e|-------33----5-3----5-3----5----5-3------------------5-3---------------------------|
B|---5-6-------------------------------------6-5---------------------5-3-------------|
G|-5---------5------5------5----5------5v--5-----7---5------5vv--5-7------5-4-5v--5v-|
D|-----------------------------------------------------------------------------------|
A|-----------------------------------------------------------------------------------|
E|-----------------------------------------------------------------------------------|

Guitar 2
e|-----------------------------------------------------------------------------|
B|-5-5-5-5--5-5-5-5--5-5-5-5--5-5-5-5--1-1-1-1--5-5-5-5--5-5-5-5---------------|
G|-5-5-5-5--4-4-4-4--2-2-2-2--5-5-5-5--2-2-2-2--5-5-5-5--5-5-5-5---------------|
D|----------------------------5-5-5-5--3-3-3-3--5-5-5-5--------------5-3-2-----|
A|-----------------------------------------------------------------3-------5-3-|
E|-----------------------------------------------------------------------------|

e|---------------------------------------------------------------------------------|
B|-5-5-5-5--5-5-5-5--5-5-5-5--5-5-5-5--1-1-1-1--5-5-5-5--5-5-5-5-------------------|
G|-5-5-5-5--4-4-4-4--2-2-2-2--5-5-5-5--2-2-2-2--5-5-5-5--5-5-5-5-------------------|
D|----------------------------5-5-5-5--3-3-3-3--5-5-5-5----------------------------|
A|----------------------------------------------------------------3--3---5--5---3v-|
E|------------------------------------------------------------------3--3---3--5----|

Bass(Low Octave Only)
G|----------------------------------------------|
D|----------------------------------------------|
A|------------------------------------333333333-|
E|-88888-7777-55555-33333-11111-33333-----------|


That's all for this song...
Добавлено: 09.04.2012
Другие материалы по этой песне:
  • Аккорды и текст

Страница создана 09.04.2012
http://primanota.ru/gloc-9/kabit-chords.htm
Привет, Гость.
Предлагаем пройти революционный курс по гитаре.
Подарок от PrimaNota.Ru, забирай!