PrimaNota.ru - самый крупный в мире бесплатный архив песенных текстов, аккордов, табулатур и нот


Gliss - Beauty - аккорды и текст, видео

Регистрация Запомнить меня
Войти через:  Facebook Google Twitter Vk Yandex Mail.ru

Gliss - Beauty - аккорды и текст, видео

Печатать
Просмотров: 82
Beauty
Gliss
---------------------------------------------------------------------------
                Beauty – Gliss
---------------------------------------------------------------------------
Tabbed by: maguri
Tuning: Standard

Gliss
Beauty (2009)

From: “Devotion Implosion”

---------------------------------------------------------------------------
CHORDS and SPECIAL VOICINGS

         E-A-D-G-B-e
C        x-3-2-0-1-0
C7M      x-2-3-0-0-0
Cadd9    x-3-2-0-3-0

Am        x-0-2-2-1-0
Asus2     x-0-2-2-0-0
Asus4     x-0-2-2-3-0

F      (t)1-x-3-2-1-1
F#11   (t)1-x-3-2-0-1
F6     (t)1-x-3-2-3-1

Dm7       x-x-0-2-1-1
Dm6       x-x-0-2-0-1
Dm7/11    x-x-0-0-1-1

C7Madd9   x-3-2-4-3-0

---------------------------------------------------------------------------

INTRO / CHORUS melody

  C     C7M     Cadd9               Am    Asus2   Asus4
e|----------------|----------------|----------------|----------------|
B|1-----0-------3-|--------------0-|1-----0-------3-|--------------0-|
G|----------------|----------2-2---|----------------|----------2-2---|
D|----------------|----------------|----------------|----------------|
A|----------------|----------------|----------------|----------------|
E|----------------|----------------|----------------|----------------|
  F     F#11    F6                  Dm7     Dm6      Dm7     Dm7/11
e|----------------|----------------|----------------|----------------|
B|1-----0-------3-|--------------0-|1-------0-------|----------------|
G|----------------|----------2-2---|----------------|2-------0-------|
D|----------------|----------------|----------------|----------------|2
A|----------------|----------------|----------------|----------------|3
E|----------------|----------------|----------------|----------------|


---------------------------------------------------------------------------

INTRO / CHORUS
| C C7M   | Cadd9 | Am Asus2 | Asus4 |
| F F#11 | F6 | Dm7 Dm6 | Dm7 Dm7/11 |

C
Kiss lovers on the side of the road

You got nothing, nothing to lose
             F
And just the good times, the sad times will pass

You know you've got to give it a chance
            C
Because the cool cool side is coming up
                    F
Oho oho oho but you love me I love you

Let's just let's just so much for beauty

C                   Am
          You gotta save my soul
             F
It's just an empty hole
               Dm7
There's just nowhere to go

SOLO
| C | % | Am | % | F | % | Dm7 | % |
| C | % | % | % |

    C
You walk slow I'll run after you in the sunshine
           F
Oho, oho I want it I really need it so much so much

I've got to give it a chance
          C
It's just ooh what's the point I'm wondering to myself

I've got nothing, nothing but time
              F
You're just a beauty accuse some bodies
                                            [C]
You got the arrow, bang, bang, bang, you're dead

C                   Am
          You gotta save my soul
             F
It's just an empty hole
               Dm7
There's just nowhere to go

C                     Am
          You save my soul
              F
It's still an empty hole
          Dm7
You got nowhere to go

C
La la la la la la la la 
F
La la la la la la la la 
Dm
I've been wondering, you been wondering too
G
Like like I do just like I do

C                   Am
          You gotta save my soul
             F
It's just an empty hole
               Dm7
There's just nowhere to go

C                     Am
          You save my soul
              F
It's still an empty hole
          Dm7
You got nowhere to go

| C | C7Madd9   | % | % | (fade)
Добавлено: 26.11.2013
Вам также может быть интересно:
Другие материалы по этой песне:
  • Аккорды и текст

Страница создана 29.09.2013
http://primanota.ru/gliss/beauty-chords.htm
Привет, Гость.
Предлагаем пройти революционный курс по гитаре.
Подарок от PrimaNota.Ru, забирай!