PrimaNota.ru - самый крупный в мире бесплатный архив песенных текстов, аккордов, табулатур и нот


Glimmer Of Blooms - Take My Hand - таба, видео

Регистрация Запомнить меня
Войти через:  Facebook Google Twitter Vk Yandex Mail.ru

Glimmer Of Blooms - Take My Hand - таба, видео

Печатать
Просмотров: 178
-------------------------------------------------------------------------------
                             Take My Hand - Glimmer of Blooms
-------------------------------------------------------------------------------


Tuning: Open D (D A D F# A D)


INTRO/Verse (2x)
e|-------------------------------------------------------------------------------------------------------|
B|-------------------------------------------------------------------------------------------------------|
G|----8~----8~----8~----8~---8s7-----7~----7~----7~-7s8~----8~----8~----8~---8s7-----7~----7~----7-------|
D|-------------------------------------------------------------------------------------------------------|
A|-------------------------------------------------------------------------------------------------------|
E|-0-----0-----0-----0-----0-----0-----0-----0-----0-----0-----0-----0-----0-----0-----0-----0-----------|

               Take  my   hand      and take me downtown       Take   my  hand     and let the sun go


e|-------------------------------------------------------------------------------------------------------|
B|-------------------------------------------------------------------------------------------------------|
G|----5-----5-----5-----5-----5-----5----s7-----7b---p0-----0-----0-----0-----0-----0-----0-----0--------|
D|-------------------------------------------------------------------------------------------------------|
A|-------------------------------------------------------------------------------------------------------|
E|-5-----5-----5-----5-----5-----5----s7-----7-----0-----0-----0-----0-----0-----0-----0-----0-----------|

   down                    let   the   sun   go    down

e|-------------------------------------------------------------------------------------------------------|
B|-------------------------------------------------------------------------------------------------------|
G|----8~----8~----8~----8~---8s7-----7~----7~----7~-7s8~----8~----8~----8~---8s7-----7~----7~----7-------|
D|-------------------------------------------------------------------------------------------------------|
A|-------------------------------------------------------------------------------------------------------|
E|-0-----0-----0-----0-----0-----0-----0-----0-----0-----0-----0-----0-----0-----0-----0-----0-----------|

               Take  my   hand      and find expression in       The silent night and let the moon break 


e|-------------------------------------------------------------------------------------------------------|
B|-------------------------------------------------------------------------------------------------------|
G|----5-----5-----5-----5-----5-----5----s7-----7b---p0-----0-----0-----0-----0-----0-----0-----0--------|
D|-------------------------------------------------------------------------------------------------------|
A|-------------------------------------------------------------------------------------------------------|
E|-5-----5-----5-----5-----5-----5----s7-----7-----0-----0-----0-----0-----0-----0-----0-----0-----------|

   in                      let   the   moon   break  in                               oooooooo....


Chorus
e|-------------------------------------------------------------------------------------------------------|
B|-------------------------------------------------------------------------------------------------------|
G|----8-----8-----8-----0----h7-----7-----7-----7----s12----12----12----12----12----12----12-----0-------|
D|-------------------------------------------------------------------------------------------------------|
A|-------------------------------------------------------------------------------------------------------|
E|-9-----9-----9-----9----s7-----7-----7-----7----s12----12----12----12----12----12----12----12----------|

   ooooooo.....

e|-------------------------------------------------------------------------------------------------------|
B|-------------------------------------------------------------------------------------------------------|
G|----8-----8-----8-----0----h7-----7-----7-----7----s12----12----12----12----12----12----12-----0-------|
D|-------------------------------------------------------------------------------------------------------|
A|-------------------------------------------------------------------------------------------------------|
E|-9-----9-----9-----9----s7-----7-----7-----7----s12----12----12----12----12----12----12----12----------|

   ooooooo.....

Verse
e|-------------------------------------------------------------------------------------------------------|
B|-------------------------------------------------------------------------------------------------------|
G|----8~----8~----8~----8~---8s7-----7~----7~----7~-7s8~----8~----8~----8~---8s7-----7~----7~----7-------|
D|-------------------------------------------------------------------------------------------------------|
A|-------------------------------------------------------------------------------------------------------|
E|-0-----0-----0-----0-----0-----0-----0-----0-----0-----0-----0-----0-----0-----0-----0-----0-----------|

               Take  my   hand  and lead me through the night       Take my hand and show me what it's


e|-------------------------------------------------------------------------------------------------------|
B|-------------------------------------------------------------------------------------------------------|
G|----5-----5-----5-----5-----5-----5----s7-----7b---p0-----0-----0-----0-----0-----0-----0-----0--------|
D|-------------------------------------------------------------------------------------------------------|
A|-------------------------------------------------------------------------------------------------------|
E|-5-----5-----5-----5-----5-----5----s7-----7-----0-----0-----0-----0-----0-----0-----0-----0-----------|

   like                   when  the  sun  goes  down

e|-------------------------------------------------------------------------------------------------------|
B|-------------------------------------------------------------------------------------------------------|
G|----8~----8~----8~----8~---8s7-----7~----7~----7~-7s8~----8~----8~----8~---8s7-----7~----7~----7-------|
D|-------------------------------------------------------------------------------------------------------|
A|-------------------------------------------------------------------------------------------------------|
E|-0-----0-----0-----0-----0-----0-----0-----0-----0-----0-----0-----0-----0-----0-----0-----0-----------|

               Take  my   hand      and i will come along       Let's watch the stars when the lights are


e|-------------------------------------------------------------------------------------------------------|
B|-------------------------------------------------------------------------------------------------------|
G|----5-----5-----5-----5-----5-----5----s7-----7b---p0-----0-----0-----0-----0-----0-----0-----0--------|
D|-------------------------------------------------------------------------------------------------------|
A|-------------------------------------------------------------------------------------------------------|
E|-5-----5-----5-----5-----5-----5----s7-----7-----0-----0-----0-----0-----0-----0-----0-----0-----------|

   gone                   when  the  lights  are  gone                                      oooooooo


Chorus (2x)
e|-------------------------------------------------------------------------------------------------------|
B|-------------------------------------------------------------------------------------------------------|
G|----8-----8-----8-----0----h7-----7-----7-----7----s12----12----12----12----12----12----12-----0-------|
D|-------------------------------------------------------------------------------------------------------|
A|-------------------------------------------------------------------------------------------------------|
E|-9-----9-----9-----9----s7-----7-----7-----7----s12----12----12----12----12----12----12----12----------|

   ooooooo.....

e|-------------------------------------------------------------------------------------------------------|
B|-------------------------------------------------------------------------------------------------------|
G|----8-----8-----8-----0----h7-----7-----7-----7----s12----12----12----12----12----12----12-----0-------|
D|-------------------------------------------------------------------------------------------------------|
A|-------------------------------------------------------------------------------------------------------|
E|-9-----9-----9-----9----s7-----7-----7-----7----s12----12----12----12----12----12----12----12----------|

   ooooooo.....


************************************

| /   slide up
| \   slide down
| h   hammer-on
| p   pull-off
| ~   vibrato
| +   harmonic
| x   Mute note
| b   Bend
| pb  Pre-bend
| br  Bend release
| pbr Pre-bend release
| brb Bend release bend

************************************
Добавлено: 12.03.2016
Другие материалы по этой песне:
  • Аккорды и текст

Страница создана 12.03.2016
http://primanota.ru/glimmer-of-blooms/take-my-hand-chords.htm
Привет, Гость.
Предлагаем пройти революционный курс по гитаре.
Подарок от PrimaNota.Ru, забирай!