PrimaNota.ru - самый крупный в мире бесплатный архив песенных текстов, аккордов, табулатур и нот


Glenn Hughes - Standing On The Rock - таба, бас-таба, видео

Регистрация Запомнить меня
Войти через:  Facebook Google Twitter Vk Yandex Mail.ru

Glenn Hughes - Standing On The Rock - таба, бас-таба, видео

Печатать
Просмотров: 168
Standing On The Rock
Standard Tuning

From The Album "Songs In The Key Of Rock"
by Glenn Hughes

Tabbed by Ben Shutt

Intro
e|---------------------------------------|
B|---------------------------------------|
G|---------------------------------------| Play
D|---------------------------------------| This
A|--4-4-4-4--3-3-3-3--8-8-8-8-8-8--6-6---| Twice
E|--2-2-2-2--1-1-1-1--6-6-6-6-6-6--4-4---|


e|--------------------------------------------|
B|--------------------------------------------|
G|--------------------------------------------|
D|-----------6-6-6-6-----------8--10-10-10-10-|
A|--4-4-4-4--4-4-4-4--6-6-6-6--6--8--8--8--8--|
E|--2-2-2-2-----------4-4-4-4-----------------|

Chorus
e|--------------------------------------------|
B|--------------------------------------------|
G|--------------------------------------------|
D|--------------------------------------------|
A|--4-----------------------------------------|
E|----6--0h4h6-6--0h4h6-6--0h4h6--------------|

e|--------------------------------------------|
B|--------------------------------------------|
G|--------------------------------------------|
D|--------------------------------------------|
A|--4-------------------6-4-------------------|
E|----6--0h4h6-6--0h4h6-----6-4---------------|

e|--------------------------------------------|
B|--------------------------------------------|
G|--------------------------------------------|
D|----------------------------------8-8-8-----|
A|--4------------------------6-6-6--6-6-6-----|
E|----6--0h4h6-6--0h4h6-6-4--4-4-4------------|

In Chorus
e|----------------------------------|
B|--11------------------------------|
G|--10--8--6/8----------------------|
D|------8--6/8----------------------|
A|----------------------------------|
E|----------------------------------|

Lyrics

Well I'm going down to Ohio
'scuse me but I got to go
I'm on my bus
I'm driving break neck speed

And I need a little company
And you could call it therapy
I'm burnin' with a passion to succeed

Get 'outta my way and step aside
And roll away the years that died
I ain't no living wreck
So let me ride

So let's go find tranquility
Surround myself in liberty
And open up the gates
Of this disease that kills me
Shackle me down limb by limb
And tie the rope round me again
And I will set you free

Standing on the rock
Standing on the rock
Standing on the rock

So magnetic so unreal
You changed my life
You made me feel
There'll be no intermission here tonight

Get outta my way and step aside
And roll away the years that died
I ain't no living wreck
So let me ride


Thanks
Any corrections - comment
Добавлено: 16.03.2012
Вам также может быть интересно:
Другие материалы по этой песне:
  • Аккорды и текст

Страница создана 16.03.2012
http://primanota.ru/glenn-hughes/standing-on-the-rock-chords.htm
Привет, Гость.
Предлагаем пройти революционный курс по гитаре.
Подарок от PrimaNota.Ru, забирай!