PrimaNota.ru - самый крупный в мире бесплатный архив песенных текстов, аккордов, табулатур и нот


Glenn Frey - You Belong To The City - текст песни, бас-таба, видео

Регистрация Запомнить меня
Войти через:  Facebook Google Twitter Vk Yandex Mail.ru

Glenn Frey - You Belong To The City - текст песни, бас-таба, видео

Печатать
Просмотров: 232
Авторы: Jack Tempchin, Glenn Frey

PLEASE NOTICE: This is not the Tab for playing Bass to the Song!!!
This is the way to play that magical melody of my favorite song! Have Fun!


Intro

---------------------------------------------------------------------|
-5-4-----5-4--------5-4--------------5-4----5-4----------------------|
-----5-------5-7-7------5----2-5-2-------7------7---2-3-5------------|
---------------------------------------------------------------------|

Bridge into Verse 1

-------------|
-------------|  x14
-------------|
-0-----------|

Verse 1

----------------------2-0-2-0-2-0-2-0-4-4-2--------------------------|
---0-2-2-----0-2-5-2-------------------------------------------------| x4
-2---------2---------------------------------------------------------|
---------------------------------------------------------------------|

Bridge into Chorus

-2-5-5-5-5-7-5-5-4---4-5-5-5-5-7-5-4---------------------------------|
---------------------------------------------------------------------|
---------------------------------------------------------------------|
---------------------------------------------------------------------|

Chorus

-12-11----12-11--------12-11-----12-11------12-12-11-11-9-9-7-9-9--7-9-9-7-9-|
-------12-------12-12--------12--------12------------------------------------|
-----------------------------------------------------------------------------|
-----------------------------------------------------------------------------|

(Play the Chorus for 2 Times)

Then do the Verse again, then the Bridge an then the Chorus.
Добавлено: 18.05.2012
Другие материалы по этой песне:
  • Аккорды и текст

Страница создана 18.03.2012
http://primanota.ru/glenn-frey/you-belong-to-the-city-chords.htm
Привет, Гость.
Предлагаем пройти революционный курс по гитаре.
Подарок от PrimaNota.Ru, забирай!