PrimaNota.ru - самый крупный в мире бесплатный архив песенных текстов, аккордов, табулатур и нот


Glenn Frey - Route 66 - бас-таба, видео

Регистрация Запомнить меня
Войти через:  Facebook Google Twitter Vk Yandex Mail.ru

Glenn Frey - Route 66 - бас-таба, видео

Печатать
Просмотров: 83
Glenn Frey (Blues)
Route 66
(Album: After Hours)


Bass Tab



Tuning : EADG
Tempo : 180 bpm
Key signature: G

Intro: 00:00
G|-------------||-------------||------------||------------|-
D|-------------||-------------||------------||------------|-
A|-------------||-/3.---------||------------||------------|-
E|-/3.---------||-------------||-/3.--------||-3--4--5--6-|-
    G              C              G
Verse1: 00:10
G|-------------||-----------2-||-------------------------|-
D|-----------2-||-----2--5----||-----------2--5--3--2----|-
A|-----2--5----||-23----------||-----2--5--------------5-|-
E|-23----------||-------------||-23----------------------|-
G           C             G
If you ever plan to motor west
G|-----------2-||-----------2-||-------------------------|-
D|-----2--5----||-----2--5----||-----------2--5--2-------|-
A|-23----------||-23----------||-----2--5-----------5--2-|-
E|-------------||-------------||-23----------------------|-
       C                                   G
Travel my way, take the highway that's the best
G|-------------||-----------4-||-------------------------|-
D|-----------4-||-----4--7----||-----------2--5--2-------|-
A|-----4--7----||-45----------||-----2--5-----------5--2-|-
E|-45----------||-------------||-23----------------------|-
         A        D      G
Get your kicks on Route 66

Verse2: 00:27
G|-------------||-----------2-||-------------------------|-
D|-----------2-||-----2--5----||-----------2--5--3--2----|-
A|-----2--5----||-23----------||-----2--5--------------5-|-
E|-23----------||-------------||-23----------------------|-
G             C            G
It winds from Chicago to L.A.
G|-----------2-||-----------2-||-------------------------|-
D|-----2--5----||-----2--5----||-----------2--5--2-------|-
A|-23----------||-23----------||-----2--5-----------5--2-|-
E|-------------||-------------||-23----------------------|-
                 C            G
More than 2000 miles all the way
G|-------------||-----------4-||-------------------------|-
D|-----------4-||-----4--7----||-----------2--5--2-------|-
A|-----4--7----||-45----------||-----2--5-----------5--2-|-
E|-45----------||-------------||-23----------------------|-
         A        D      G
Get your kicks on Route 66


Bridge1: 00:42 (Stabs n'break)
G|-------------||-------------||------------||------------|-
D|-------------||-------------||------------||------------|-
A|-------------||-/3.---------||------------||------------|-
E|-/3.---------||-------------||-/3.--------||-3--4--5--6-|-
        G 
Now you go through St. Loui
C 
Joplin, Missori
G
Oklahoma City looks mighty pretty
G|-----------2-||-----------2-||-------------------------|-
D|-----2--5----||-----2--5----||-----------2--5----------|-
A|-23----------||-23----------||-----2--5--------2--3--4-|-
E|-------------||-------------||-23----------------------|-
       C
You'll see Amarillo
G
Gallop, New Mexico
G|-----------4-||-----------2-||-------------||---------4-|-
D|-----4--7----||-----2--5----||-----------2-||----4--7---|-
A|-45----------||-23----------||-----2--5----||-45--------|-
E|-------------||-------------||-23----------||-----------|-
D                   C
Flagstaff, Arizona (Don't forget Winona)
G                 D
Kingman, Barstow, San Bernadino

Verse3: 00:58
G|-------------||-----------2-||-------------------------|-
D|-----------2-||-----2--5----||-----------2--5--3--2----|-
A|-----2--5----||-23----------||-----2--5--------------5-|-
E|-23----------||-------------||-23----------------------|-
      G       C                  G
Won't you get hip to this timely tip
G|-----------2-||-----------2-||-------------------------|-
D|-----2--5----||-----2--5----||-----------2--5--2-------|-
A|-23----------||-23----------||-----2--5-----------5--2-|-
E|-------------||-------------||-23----------------------|-
         C                    G
When you take that California trip
G|-------------||-----------4-||-------------------------|-
D|-----------4-||-----4--7----||-----------2--5--2-------|-
A|-----4--7----||-45----------||-----2--5-----------5--2-|-
E|-45----------||-------------||-23----------------------|-
         A        D      G
Get your kicks on Route 66


Solo: 01:14 [PLAY VERSE X2]
on the Blues and Pentatonic scales in the Key of G major.


Bridge2: 01:46
G|-------------||-------------||------------||------------|-
D|-------------||-------------||------------||------------|-
A|-------------||-/3.---------||------------||------------|-
E|-/3.---------||-------------||-/3.--------||-3--4--5--6-|-
        G 
Now you go through St. Louie
C 
Joplin, Missori
G
Oklahoma City looks mighty pretty
G|-----------2-||-----------2-||-------------------------|-
D|-----2--5----||-----2--5----||-----------2--5----------|-
A|-23----------||-23----------||-----2--5--------2--3--4-|-
E|-------------||-------------||-23----------------------|-
       C
You'll see Amarillo
G
Gallop, New Mexico
G|-----------4-||-----------2-||-------------||---------4-|-
D|-----4--7----||-----2--5----||-----------2-||----4--7---|-
A|-45----------||-23----------||-----2--5----||-45--------|-
E|-------------||-------------||-23----------||-----------|-
D                   C
Flagstaff, Arizona (Don't forget Winona)
G                 D
Kingman, Barstow, San Bernadino


Verse4: 02:02
G|-------------||-----------2-||-------------------------|-
D|-----------2-||-----2--5----||-----------2--5--3--2----|-
A|-----2--5----||-23----------||-----2--5--------------5-|-
E|-23----------||-------------||-23----------------------|-
      G       C                  G
Won't you get hip to this timely tip
G|-----------2-||-----------2-||-------------------------|-
D|-----2--5----||-----2--5----||-----------2--5--2-------|-
A|-23----------||-23----------||-----2--5-----------5--2-|-
E|-------------||-------------||-23----------------------|-
         C                    G
When you take that California trip
G|-------------||-----------4-||-------------------------|-
D|-----------4-||-----4--7----||-----------2--5--2-------|-
A|-----4--7----||-45----------||-----2--5-----------5--2-|-  x3
E|-45----------||-------------||-23----------------------|-
         A        D      G
Get your kicks on Route 66
... 
A        D      G
Get your kicks on Route 66.
         A        D      G
Get your kicks on Route 66.


Outro / Solo: 01:14 PLAY VERSE X2
on the Blues and Pentatonic scales in the Key of G major.

G|-------------||-----------2-||-------------------------|-
D|-----------2-||-----2--5----||-----------2--5--3--2----|-
A|-----2--5----||-23----------||-----2--5--------------5-|-
E|-23----------||-------------||-23----------------------|-
      G       C                  G

G|-----------2-||-----------2-||-------------------------|-
D|-----2--5----||-----2--5----||-----------2--5--2-------|-
A|-23----------||-23----------||-----2--5-----------5--2-|-
E|-------------||-------------||-23----------------------|-
         C                    G

G|-------------||-----------4-||-------------------------|-
D|-----------4-||-----4--7----||-----------2--5--2-------|-
A|-----4--7----||-45----------||-----2--5-----------5--2-|-
E|-45----------||-------------||-23----------------------|-
         A        D      G

Continue with a solo on the high notes in the key of G 
then end on G major.

End: 03:00


Tablature Legend
----------------
| S slap
| P pop
| x mute note
| . full stop
| / slide up
| \ slide down
| h hammer-on
| p pull-off
| g grace note
| ~ vibrato
| ^ brush up
Добавлено: 28.04.2016
Другие материалы по этой песне:
  • Аккорды и текст

Страница создана 28.04.2016
http://primanota.ru/glenn-frey/route-66-chords.htm
Привет, Гость.
Предлагаем пройти революционный курс по гитаре.
Подарок от PrimaNota.Ru, забирай!