PrimaNota.ru - самый крупный в мире бесплатный архив песенных текстов, аккордов, табулатур и нот


Glen Phillips - Fred Meyer - таба, видео

Регистрация Запомнить меня
Войти через:  Facebook Google Twitter Vk Yandex Mail.ru

Glen Phillips - Fred Meyer - таба, видео

Печатать
Просмотров: 118
Tab: "Fred Meyers" by Glen Phillips
Transcribed by michael a. mazur 

Capo III

Intro, verse and chorus progression... most of the song is based
on these two measures, only with lots of variations. often, the
D/F# is a regular D... the little flourishes on the D/F# and A
chords are usually omitted during the verses... things like that.

   G        D/F#                A          D/F# A
|----------------------------|------------------------------|
|--3-----3--3----------------|----------2--3----------------|
|--0-----0--2----------2-----|----------2--2----2--2/4\2p0--|
|--0-----0--0-----2h4-----2--|--0h2-----2--0----2--2/4\2p0--|
|--2-----2--0----------------|--0----0-----0----------------|
|--3--3--3--2--2-------------|-------------2----------------|

        G           D/F#
i wanna see you sometime

             A       D/F#   A
come find me i'll be home
just between the costco
and the barnes and noble
behind a mom & pop grocery
shut down in the 90's
like all the other locals
they smashed the derams of the hopeful

i'm getting off track - sorry,
so like i said right in there
it was a frederick meyers
sold everything from fruit to tires
check in with the doorman
an old biker named slim
say you're here to see me
don't forget to tip him


Prechorus:

   C           G/B   G        D           D/C#
|--------------------------|--------0--2--------------|
|--------1--------3--------|--------3--3--------3-----|
|--------0--------0-----0--|-----2-----------2-----2--|
|-----2--2--2-----0-----0--|--0-----------------------|
|--3-----3-----2--------2--|--------------4-----------|
|--------------------3-----|--------------------------|


   C  N.C.
|--0------------------|
|--1------------------|
|--0------------------|
|--2------------------|
|--3------------------|
|-----0--1--2--3\-----|

C             G/B      G
one hand must wash the other

D             D/C#
each man must be your brother

C   N.C.
band up and take cover


Chorus:

         G            D/F#
we'll go dancing, set fires

    A                D/F#   A
tag buildings, slash tires
drive go-karts like shriners
just hang out at fred meyers

bring a lantern with you
it gets dark in places
go up the escalator
to the section that was kid's wear
i'm at the back wall left side
under a sign that says "levi's"
top bunk second row
if i'm not in right then, ask around, somebody'll know
cause everybody knows me

one hand must wash the other
each man must be your brother
band up and take cover

we'll go dancing, set fires
tag buildings, slash tires
drive go-karts like shriners
just hang out at fred meyers
we'll go out babe, skateboarding
go looting, food hoarding
do whatever desire
just hang out at fred meyers

one hand must wash the other
each man must be your brother
band up and take cover

we'll go dancing, set fires
tag buildings, slash tires
drive go-karts like shriners
just hang out at fred meyers
we'll go out babe, drink moonshine
tip rubble on the eastside
dig deep holes to chiner
we can just stay in my bed at fred meyers
why don't we just stay in my bed at fred meyers?

 
Добавлено: 19.08.2013
Другие материалы по этой песне:
  • Аккорды и текст

Страница создана 19.08.2013
http://primanota.ru/glen-phillips/fred-meyer-chords.htm
Привет, Гость.
Предлагаем пройти революционный курс по гитаре.
Подарок от PrimaNota.Ru, забирай!