PrimaNota.ru - самый крупный в мире бесплатный архив песенных текстов, аккордов, табулатур и нот


Glen Hansard - Didnt He Ramble - таба, видео

Регистрация Запомнить меня
Войти через:  Facebook Google Twitter Vk Yandex Mail.ru

Glen Hansard - Didnt He Ramble - таба, видео

Печатать
Просмотров: 85
-------------------------------------------------------------------------------
                      Didn't he Ramble - Glen Hansard
-------------------------------------------------------------------------------
Tabbed by: Stefano Coletto

Tuning: Standard

intro:

e|---------------------------------------|
B|-------------------------------7-------|
G|-------------7-6-6-------7-6-6---------|
D|---------------------------------------|
A|---------------------------------------|
E|-7-7-7-7-7-7-7-7-7-7-7-7-7-7-7-7-7-7-7-|

B*


Didn't he ramble
Didn't he roam
Didn't he wonder so far from home...

var 1:

e|-2--------|
B|----2--3--|
G|----------|
D|----------|
A|----------|
E|-3--3--3--|

G7

And didn't he go down in the dark for too long

var 2:

e|-------------2--|
B|-2--3--2--------|
G|-2--4--4--------|
D|-2--2--2--------|
A|----------------|
E|-------------3--|

A*             G7

And don't we look good now singing his song

var 3:

e|-------------2---|
B|-2--3--2---------|
G|-2--4--4--------2|
D|-2--2--2--------2|
A|----------------x|
E|-------------3--2|

A*             G7 F#*

Rit:

e|---------------2---------|
B|--------5----------------|
G|-7------6-------------2--|
D|-7--------------------2--|
A|-x--------------------x--|
E|-7------5------5------2--|
   B*     A*     G7     F#*

| x   Mute note


2nd verse:

Didn't he teach us
Didn't we learn
Didn't he reach out beyond all return
Didn't he go down and take it all to the grave
And don't we feel good now with the choiche that he made
Добавлено: 17.05.2016
Вам также может быть интересно:
Другие материалы по этой песне:
  • Аккорды и текст

Страница создана 17.05.2016
http://primanota.ru/glen-hansard/didnt-he-ramble-chords.htm
Привет, Гость.
Предлагаем пройти революционный курс по гитаре.
Подарок от PrimaNota.Ru, забирай!