PrimaNota.ru - самый крупный в мире бесплатный архив песенных текстов, аккордов, табулатур и нот


Glen Hansard - The Auld Triangle - аккорды и текст, видео

Регистрация Запомнить меня
Войти через:  Facebook Google Twitter Vk Yandex Mail.ru

Glen Hansard - The Auld Triangle - аккорды и текст, видео

Печатать
Просмотров: 102
The Auld Triangle
Glen Hansard
-------------------------------------------------------------------------------
                The Auld Triangle - Glen Hansard (LIVE AT ROYAL ALBERT HALL)
-------------------------------------------------------------------------------
Tabbed by Benoit
Capo 5th -  Key of G

%100 Correct

If you have any requests for correct songs as Ultimate Guitar Can have some awful ones
please let me know.

Tuning:DADGBE

Chords. ( Though the key is G I've named the chords after the traditional shapes)


                         6
     D      D7M        D 9      Eminor7      A7

e|---2--------2---------0---------3---------(3)--------------------------------------|
B|---3--------2---------0---------3----------2---------------------------------------|
G|---2--------2---------2---------0----------0---------------------------------------|
D|---0--------0-------- 0---------2----------2---------------------------------------|
A|---0--------0---------0---------2----------0---------------------------------------|
D|---0--------0---------0---------0--------------------------------------------------|
                 6
  D      D7M    D9  D7M  
A hungry feeling     6
     D       D7M    D9   D7M  
Came o'er me stealing
        Eminor7   D
And the mice were squealing
   Eminor7   A7
In my prison cell     6
         D    D7M    D9   D7M  
And that auld triangle
                    6
     D      D7M    D9   D7M  
went jingle-jangle

    Eminor7   D            Eminor7 A7
All along the banks of the Royal
              6
  D   D7M    D9   D7M  
Canal

And SO ON..

(lyrics taken from lyrics freak for  your convenience)

Oh! the screw was peeping
And the (lag|loike) was sleeping
As he lay weeping
For his girl Sal
And that auld triangle went jingle-jangle
All along the banks of the Royal Canal

On a fine Spring evening
The (lag|loike) lay dreaming
And the sea-gulls were wheeling
High above the wall
And that auld triangle went jingle-jangle
All along the banks of the Royal Canal

Oh! the wind was sighing
And the day was dying
As the (lag|loike) lay crying
In his prison cell
And that auld triangle went jingle-bloody-jangle
All along the banks of the Royal Canal

In the women's prison
There are seventy women
And I wish it was with them
That I did dwell
Then that auld triangle could go jingle-jangle
All along the banks of the Royal Canal
Добавлено: 30.09.2015
Другие материалы по этой песне:
  • Аккорды и текст

Страница создана 30.09.2015
http://primanota.ru/glen-hansard/auld-triangle-chords.htm
Привет, Гость.
Предлагаем пройти революционный курс по гитаре.
Подарок от PrimaNota.Ru, забирай!