PrimaNota.ru - самый крупный в мире бесплатный архив песенных текстов, аккордов, табулатур и нот


Glen Frey - The One You Love - таба, видео

Регистрация Запомнить меня
Войти через:  Facebook Google Twitter Vk Yandex Mail.ru

Glen Frey - The One You Love - таба, видео

Печатать
Просмотров: 72
INTRO: Play this Chords Below:
      
  Am                        Gmajor7                         Am                  Gmajor7

e-0-----------------------|-2-----------------------|-0-----------------------|-2-------------|
B-1-----------------------|-3-----------------------|-1-----------------------|-3-------------|
G-2-----------------------|-4-----------------------|-2-----------------------|-4-------------|
D-2-----------------------|-5-----------------------|-2-----------------------|-5-------------|
A-0-----------------------|-5-----------------------|-0-----------------------|-5-------------|
E-------------------------|-3-----------------------|-------------------------|-3-------------|

  Cmajor7                   Bm                        Am         D   D          G    2bars

e-3-----------------------|-2-----------------------|-0----------2---2--------|-3-------------|
B-5-----------------------|-3-----------------------|-1----------3---3--------|-3-------------|
G-4-----------------------|-4-----------------------|-2----------2---2--------|-4-------------|
D-5-----------------------|-4-----------------------|-2----------0---0--------|-5-------------|
A-3-----------------------|-2-----------------------|-0-----------------------|-5-------------|
E-------------------------|-------------------------|-------------------------|-3-------------|


Verse: X2

  Cmajor7                    Gmajor7                  Cmajor7                    Gmajor7

e---3---------------------|--2----------------------|---3---------------------|---2-----------|
B---5---------------------|--3----------------------|---5---------------------|---3-----------|
G---4---------------------|--4----------------------|---4---------------------|---4-----------|
D---5---------------------|--5----------------------|---5---------------------|---5-----------|
A---3---------------------|-------------------------|---3---------------------|---------------|
E-------------------------|--3----------------------|-------------------------|---3-----------|
  Cmajor7                    Bm7                        Am       D   D          G 2bars
  
e---3---------------------|--2----------------------|---0--------2---2--------|-3-------------|
B---5---------------------|--3----------------------|---1--------3---3--------|-3-------------|
G---4---------------------|--2----------------------|---2--------2---2--------|-4-------------|
D---5---------------------|--4----------------------|---2--------0---0--------|-5-------------|
A---3---------------------|--2----------------------|---0---------------------|-5-------------|
E-------------------------|-------------------------|-------------------------|-3-------------|

Bridge:
 
  Bm7                        Am7                      Bm7                        D   2bars

e--2----------------------|--0----------------------|--2----------------------|--2------------|
B--3----------------------|--1----------------------|--3----------------------|--3------------|
G--2----------------------|--0----------------------|--2----------------------|--2------------|
D--4----------------------|--2----------------------|--4----------------------|--0------------|
A--2----------------------|--0----------------------|--2----------------------|---------------|
E-------------------------|-------------------------|-------------------------|---------------|

Verse 2:



    Am7                    Gmajor7                     Am7                     Gmajor7

e---0---------------------|--2----------------------|---0---------------------|---2-----------|
B---1---------------------|--3----------------------|---1---------------------|---3-----------|
G---0---------------------|--4----------------------|---0---------------------|---4-----------|
D---2---------------------|--5----------------------|---2---------------------|---5-----------|
A---0---------------------|-------------------------|---0---------------------|---------------|
E-------------------------|--3----------------------|-------------------------|---3-----------|
  
  Cmajor7                    Bm7                        Am       D   D          G 2bars
  
e---3---------------------|--2----------------------|---0--------2---2--------|-3-------------|
B---5---------------------|--3----------------------|---1--------3---3--------|-3-------------|
G---4---------------------|--2----------------------|---2--------2---2--------|-4-------------|
D---5---------------------|--4----------------------|---2--------0---0--------|-5-------------|
A---3---------------------|--2----------------------|---0---------------------|-5-------------|
E-------------------------|-------------------------|-------------------------|-3-------------|


saxophone solo: Play This Chords below:
      
  Am                        Gmajor7                         Am                  Gmajor7

e-0-----------------------|-2-----------------------|-0-----------------------|-2-------------|
B-1-----------------------|-3-----------------------|-1-----------------------|-3-------------|
G-2-----------------------|-4-----------------------|-2-----------------------|-4-------------|
D-2-----------------------|-5-----------------------|-2-----------------------|-5-------------|
A-0-----------------------|-5-----------------------|-0-----------------------|-5-------------|
E-------------------------|-3-----------------------|-------------------------|-3-------------|

  Cmajor7                   Bm                        Am         D   D          G    2bars

e-3-----------------------|-2-----------------------|-0----------2---2--------|-3-------------|
B-5-----------------------|-3-----------------------|-1----------3---3--------|-3-------------|
G-4-----------------------|-4-----------------------|-2----------2---2--------|-4-------------|
D-5-----------------------|-4-----------------------|-2----------0---0--------|-5-------------|
A-3-----------------------|-2-----------------------|-0-----------------------|-5-------------|
E-------------------------|-------------------------|-------------------------|-3-------------|


Verse 3:

    Am7                    Gmajor7                     Am7                     Gmajor7

e---0---------------------|--2----------------------|---0---------------------|---2------------|
B---1---------------------|--3----------------------|---1---------------------|---3------------|
G---0---------------------|--4----------------------|---0---------------------|---4------------|
D---2---------------------|--5----------------------|---2---------------------|---5------------|
A---0---------------------|-------------------------|---0---------------------|----------------|
E-------------------------|--3----------------------|-------------------------|---3------------|
  
  Cmajor7                    Bm7                        Am       D   D          G 2bars
  
e---3---------------------|--2----------------------|---0--------2---2--------|-3--------------|
B---5---------------------|--3----------------------|---1--------3---3--------|-3--------------|
G---4---------------------|--2----------------------|---2--------2---2--------|-4--------------|
D---5---------------------|--4----------------------|---2--------0---0--------|-5--------------|
A---3---------------------|--2----------------------|---0---------------------|-5--------------|
E-------------------------|-------------------------|-------------------------|-3--------------|

Bridge:
 
  Bm7                        Am7                      Bm7                        D   2bars

e--2----------------------|--0----------------------|--2----------------------|--2-------------|
B--3----------------------|--1----------------------|--3----------------------|--3-------------|
G--2----------------------|--0----------------------|--2----------------------|--2-------------|
D--4----------------------|--2----------------------|--4----------------------|--0-------------|
A--2----------------------|--0----------------------|--2----------------------|----------------|
E-------------------------|-------------------------|-------------------------|----------------|


Verse 3:


    Am7                    Gmajor7                     Am7                     Gmajor7

e---0---------------------|--2----------------------|---0---------------------|---2------------|
B---1---------------------|--3----------------------|---1---------------------|---3------------|
G---0---------------------|--4----------------------|---0---------------------|---4------------|
D---2---------------------|--5----------------------|---2---------------------|---5------------|
A---0---------------------|-------------------------|---0---------------------|----------------|
E-------------------------|--3----------------------|-------------------------|---3------------|
  
  Cmajor7                    Bm7                        Am       D   D          G 2bars
  
e---3---------------------|--2----------------------|---0--------2---2--------|-3--------------|
B---5---------------------|--3----------------------|---1--------3---3--------|-3--------------|
G---4---------------------|--2----------------------|---2--------2---2--------|-4--------------|
D---5---------------------|--4----------------------|---2--------0---0--------|-5--------------|
A---3---------------------|--2----------------------|---0---------------------|-5--------------|
E-------------------------|-------------------------|-------------------------|-3--------------|

saxophone solo: Play This Chords below:


      

    Am7                    Gmajor7                     Am7                     Gmajor7

e---0---------------------|--2----------------------|---0---------------------|---2------------|
B---1---------------------|--3----------------------|---1---------------------|---3------------|
G---0---------------------|--4----------------------|---0---------------------|---4------------|
D---2---------------------|--5----------------------|---2---------------------|---5------------|
A---0---------------------|-------------------------|---0---------------------|----------------|
E-------------------------|--3----------------------|-------------------------|---3------------|
  
  Cmajor7                    Bm7                        Am       D   D          G 2bars
  
e---3---------------------|--2----------------------|---0--------2---2--------|-3--------------|
B---5---------------------|--3----------------------|---1--------3---3--------|-3--------------|
G---4---------------------|--2----------------------|---2--------2---2--------|-4--------------|
D---5---------------------|--4----------------------|---2--------0---0--------|-5--------------|
A---3---------------------|--2----------------------|---0---------------------|-5--------------|
E-------------------------|-------------------------|-------------------------|-3--------------|
 

      
  Am                        Gmajor7                     Am                  Gmajor7

e-0-----------------------|-2-----------------------|-0-----------------------|-2--------------|
B-1-----------------------|-3-----------------------|-1-----------------------|-3--------------|
G-2-----------------------|-4-----------------------|-2-----------------------|-4--------------|
D-2-----------------------|-5-----------------------|-2-----------------------|-5--------------|
A-0-----------------------|-5-----------------------|-0-----------------------|-5--------------|
E-------------------------|-3-----------------------|-------------------------|-3--------------|

  Am7                      Gmajor7                    Am         D   D          G    2bars

e-0-----------------------|-2-----------------------|-0----------2---2--------|-3--------------|
B-1-----------------------|-3-----------------------|-1----------3---3--------|-3--------------|
G-0-----------------------|-4-----------------------|-2----------2---2--------|-4--------------|
D-2-----------------------|-5-----------------------|-2----------0---0--------|-5--------------|
A-0-----------------------|-5-----------------------|-0-----------------------|-5--------------|
E-------------------------|-3-----------------------|-------------------------|-3--------------|
Добавлено: 03.12.2013
Вам также может быть интересно:
Другие материалы по этой песне:
  • Аккорды и текст

Страница создана 03.12.2013
http://primanota.ru/glen-frey/the-one-you-love-chords.htm
Привет, Гость.
Предлагаем пройти революционный курс по гитаре.
Подарок от PrimaNota.Ru, забирай!