PrimaNota.ru - самый крупный в мире бесплатный архив песенных текстов, аккордов, табулатур и нот


Glen Campbell - Cold December In Your Heart - аккорды и текст, видео

Регистрация Запомнить меня
Войти через:  Facebook Google Twitter Vk Yandex Mail.ru

Glen Campbell - Cold December In Your Heart - аккорды и текст, видео

Печатать
Просмотров: 29
Уроки эстрадного вокала в Санкт-Петербурге
Cold December In Your Heart
Glen Campbell
Cold December In Your Heart
Glen Campbell
written by Alex Hassilev
1967 album By The Time I get To Phoenix

guitar tuning standard

Intro E ---------------------|  ( 2X )
      B ---------------------|
      G ---------------------|
      D ---3-2-1-0-----------|
      A -----------3---------|
      E -1-----------1-------|


F                Bb      F
A touch of April in your smile

      E ---------------------|
      B ---------------------|
      G ---------------------|
      D ---3-2-1-0-----------|
      A -----------3---------|
      E -1-----------1-------|


F           Dm          G      C
July and August in your yellow hair


      E -------------------|  Fill
      B -------------------|
      G -------------------|
      D -------------------|
      A --3-5-3-0----------|
      E ----------3-1------|

F                 Bb      F
A sweet September in your eyes

      E -------------------|
      B -------------------|
      G -------------------|
      D ---3-2-1-0---------|
      A -----------3-------|
      E -1-----------1-----|

F        Dm             G           C
November notions in the clothes you wear
Bb           C        Dm          G
You're every season's work of art
N/C           F    Bb               F
But there's a cold December in your heart

      E ---------------------|  ( 2X )
      B ---------------------|
      G ---------------------|
      D ---3-2-1-0-----------|
      A -----------3---------|
      E -1-----------1-------|


F                   Bb     F
It seemed to me the day we met

      E -------------------|
      B -------------------|
      G -------------------|
      D ---3-2-1-0---------|
      A -----------3-------|
      E -1-----------1-----|

F            Dm          G        C
that all the flowers had begun to bloom

      E -------------------|  Fill
      B -------------------|
      G -------------------|
      D -------------------|
      A --3-5-3-0----------|
      E ----------3-1------|

F                       Bb    F
I thought you'd help me to forget

      E -------------------|
      B -------------------|
      G -------------------|
      D ---3-2-1-0---------|
      A -----------3-------|
      E -1-----------1-----|

F         Dm            G      C
The dusty shadows of my lonely room
Bb          C           Dm            G
I should've known right from the start
N/C       F    Bb       C       F
About the cold December in your heart

      E -------------------|  Bridge
      B -------------------|
      G -------------------|
      D ---3-2-1-0---------|
      A -----------3-------|
      E -1-----------1-----|

      E -------------------|
      B -------------------|
      G -----2-----2-3-----|
      D -3-5---3-5---------|
      A -------------------|
      E -------------------|

Bb                   F
I loved you more and more each day
Bb            C             F
Through every season of the year
Bb                   F         Dm
Your lovin' laughter seemed to say
Bb                       A        Bb C
Your life was empty when I wasn't near

      E -------------------|
      B -------------------|
      G -------------------|
      D ---3-2-1-0---------|
      A -----------3-------|
      E -1-----------1-----|


F                       Bb     F
Old love would lead you to the grave

      E -------------------|
      B -------------------|
      G -------------------|
      D ---3-2-1-0---------|
      A -----------3-------|
      E -1-----------1-----|


F                         G        C
I was a fool to think you loved my too
F                       Bb    F
You always took but you never gave


      E -------------------|
      B -------------------|
      G -------------------|
      D ---3-2-1-0---------|
      A -----------3-------|
      E -1-----------1-----|

F            Dm           G        C
Until you've taken all my love for you
Bb       C       A    Dm     G
I feel a chill I must depart
              F   Bb   Dm     C       F
and leave the cold   December in your heart


      E -------------------|
      B -------------------|
      G -------------------|
      D ---3-2-1-0---------|
      A -----------3-------|
      E -1-----------1-----|

F
In your heart,


      E -------------------|
      B -------------------|
      G -------------------|
      D ---3-2-1-0---------|
      A -----------3-------|
      E -1-----------1-----|

F
in your heart

      E ---------------5-8-10 12-13--|
      B -----------5-6---------------|
      G -----2-5-7-------------------|
      D -3-5-------------------------|
      A -----------------------------|
      E -----------------------------|

flyinglibra51
God Bless Glen Travis Campbell
Добавлено: 21.02.2016
Другие материалы по этой песне:
  • Аккорды и текст

Страница создана 21.02.2016
http://primanota.ru/glen-campbell/cold-december-in-your-heart-chords.htm
Привет, Гость.
Предлагаем пройти революционный курс по гитаре.
Подарок от PrimaNota.Ru, забирай!