PrimaNota.ru - самый крупный в мире бесплатный архив песенных текстов, аккордов, табулатур и нот


Glee - Mine - аккорды и текст, видео

Регистрация Запомнить меня
Войти через:  Facebook Google Twitter Vk Yandex Mail.ru

Glee - Mine - аккорды и текст, видео

Печатать
Просмотров: 180
Mine
Glee
Hi! My name is Pernille, and I'm 14 years old. This is my first tab, so I hope it
is good enough. This song was originally by Taylor swift, but Glee made a cover.

e|------0---------------3-----------------2---------------0---------------0-------|
B|----1---1----------0-----0-----------3----3----------0----0----------1----1-----|
G|--0-------0-----0-----------0-----2----------2-----0----------0-----0---------0-|
D|--------------------------------------------------------------------------------|
A|--------------------------------------------------------------------------------|
E|0------------3------------------0---------------0----------------0--------------|

E|---------3-------|
B|------0----0-----|
G|---0----------0--|
D|-----------------|
A|-----------------|
E|3----------------|


C


C             G                     D            Em7
 You were in college working part time waiting tables
C             G            D
 Left a small town, never looked back
C            G          D         Em7
 I was a flight risk with a fear of falling
C                     G             D
Wondering why we bother with love if it never lasts

C G D                    C G
  I say can you believe it?
D                       C  G
 As we're lying on the couch
    D
The moment I could see it
C    G    D
Yes, yes, I can see it now

C                        G
 Do you remember we were sitting there by the water
D                         Em       D      C
 You put your arm around me for the first time
C                      G
 You made a rebel of a careless man's careful daughter
D                      Em                         D        C
 You are the best thing that's ever been mine

        Em                     C
And I remember that fight, two thirty AM
    D
As everything was slipping out of our hands
Em                      C                         D
And I ran out crying and you followed me out into the street
C G    D
   And you took me by suprise
C G         D                     C
   You said I'll never leave you alone

You said
C                  G
 I remember how we felt sitting by the water
D                                                   D     C
 She is the best thing that's ever been mine (C-G-D-EM7)


C                      G
 You made a rebel of a careless man's careful daughter
D                                                      D      C
 You are the best thing that's ever been mine
         D
Do you believe it?
        D
We're gonna make it now
     D
And I can see it
C     G          D
I can see it now
Добавлено: 10.08.2013
Другие материалы по этой песне:
  • Аккорды и текст

Страница создана 10.08.2013
http://primanota.ru/glee/mine-chords.htm
Привет, Гость.
Предлагаем пройти революционный курс по гитаре.
Подарок от PrimaNota.Ru, забирай!