PrimaNota.ru - самый крупный в мире бесплатный архив песенных текстов, аккордов, табулатур и нот


Glassjaw - You Think Youre John Fucking Lennon - таба, видео

Регистрация Запомнить меня
Войти через:  Facebook Google Twitter Vk Yandex Mail.ru

Glassjaw - You Think Youre John Fucking Lennon - таба, видео

Печатать
Просмотров: 111
-------------------------------------------------------------------------------
           (You Think You're) John Fucking Lennong - Glassjaw
-------------------------------------------------------------------------------
Tabbed by: M45k1ngt4p3
Email: m45k1ngt4p3@hotmail.com

Tuning:DADGBE

VERSE PT.1

e|----------------------------|
B|------------------------5---|
G|------------------------7^--|
D|2p0-2h3p2p0---------2p0-----|
A|2p0-2h3p2p0--(x11)--2p0-----|
D|2p0-2h3p2p0---------2p0-----|

BREAK
"You Don't Know...."

e|------------------------------------------------|
B|------------------------------------------------|
G|8-8-8-8-8-8-8-8-8-8-8-8-8-8-8-8-8-8-8-8-8-8-8-8-|
D|7-7-7-7-7-7-7-7-7-7-7-7-7-7-7-7-7-7-7-7-7-7-7-7-|
A|6-6-6-6-6-6-6-6-6-6-6-6-6-6-6-6-6-6-6-6-6-6-6-6-|
D|6-6-6-6-6-6-6-6-6-6-6-6-6-6-6-6-6-6-6-6-6-6-6-6-|

VERSE pt.2

e|--------------------------------------------------------------------|
B|----------------------------5---------------------------------------|
G|----------------------------7^--------------------------------------|
D|2p0-2h3p2p0-2p0-2h3p2p0-2p0-----2p0-2h3p2p0-2p0-2h3p2p0-2-0-2-3-2-0-|
A|2p0-2h3p2p0-2p0-2h3p2p0-2p0-----2p0-2h3p2p0-2p0-2h3p2p0-2-0-2-3-2-0-|
D|2p0-2h3p2p0-2p0-2h3p2p0-2p0-----2p0-2h3p2p0-2p0-2h3p2p0-2-0-2-3-2-0-|
                                                          p.m.--------|

e|------------------------------------------------------------0-|
B|----------------------------5-------------------------------0-|
G|----------------------------7^------------------------------0-|
D|2p0-2h3p2p0-2p0-2h3p2p0-2p0-----2p0-2h3p2p0-2p0-2h3p2p0-2p0-0-|
A|2p0-2h3p2p0-2p0-2h3p2p0-2p0-----2p0-2h3p2p0-2p0-2h3p2p0-2p0---|
D|2p0-2h3p2p0-2p0-2h3p2p0-2p0-----2p0-2h3p2p0-2p0-2h3p2p0-2p0---|
                                                         
BREAK

e|------------------------------------------------|
B|------------------------------------------------|
G|8-8-8-8-8-8-8-8-8-8-8-8-8-8-8-8-8-8-8-8-8-8-8-8-|
D|7-7-7-7-7-7-7-7-7-7-7-7-7-7-7-7-7-7-7-7-7-7-7-7-|
A|6-6-6-6-6-6-6-6-6-6-6-6-6-6-6-6-6-6-6-6-6-6-6-6-|
D|6-6-6-6-6-6-6-6-6-6-6-6-6-6-6-6-6-6-6-6-6-6-6-6-|


Chorus ("I've Got A Handle on the Fiction")

e|-0---0---0--0--0--0---------0---0---0--0--0--0----|
B|-0---0---0--0--0--0---------0---0---0--0--0--0----|
G|-6---6---6--6--6--6---------6---6---6--6--6--6----|
D|-7---7---7--4--6--6---------7---7---7--4--6--6----|
A|5--5---5----2--4--0-------5---5---5----2--4--0----|
D|0--0---0-------4----------0---------------4-------|

e|-0---0---0--0--0------------0---0---0--0--0--0--12--|
B|-0---0---0--0--0-x----------0---0---0--0--0--0--15^-|
G|-6---6---6--6--6-x----------6---6---6--6--6--6------|
D|-7---7---7--7--6-x-6-6-6----7---7---7--4--6--6------|
A|5--5---5----5--4-x-0-0-0--5---5---5----2--4--0------|
D|0--0---0----0--4----------0---------------4---------|

VERSE PT.1

e|----------------------------|
B|------------------------5---|
G|------------------------7^--|
D|2p0-2h3p2p0---------2p0-----|
A|2p0-2h3p2p0--(x11)--2p0-----|
D|2p0-2h3p2p0---------2p0-----|

BREAK
"You Don't Know...."

e|------------------------------------------------|
B|------------------------------------------------|
G|8-8-8-8-8-8-8-8-8-8-8-8-8-8-8-8-8-8-8-8-8-8-8-8-|
D|7-7-7-7-7-7-7-7-7-7-7-7-7-7-7-7-7-7-7-7-7-7-7-7-|
A|6-6-6-6-6-6-6-6-6-6-6-6-6-6-6-6-6-6-6-6-6-6-6-6-|
D|6-6-6-6-6-6-6-6-6-6-6-6-6-6-6-6-6-6-6-6-6-6-6-6-|

VERSE pt.2

e|--------------------------------------------------------------------|
B|----------------------------5---------------------------------------|
G|----------------------------7^--------------------------------------|
D|2p0-2h3p2p0-2p0-2h3p2p0-2p0-----2p0-2h3p2p0-2p0-2h3p2p0-2-0-2-3-2-0-|
A|2p0-2h3p2p0-2p0-2h3p2p0-2p0-----2p0-2h3p2p0-2p0-2h3p2p0-2-0-2-3-2-0-|
D|2p0-2h3p2p0-2p0-2h3p2p0-2p0-----2p0-2h3p2p0-2p0-2h3p2p0-2-0-2-3-2-0-|
                                                          p.m.--------|

e|--------------------------------------------------------------|
B|----------------------------5-------------------------------5-|
G|----------------------------7^------------------------------5-|
D|2p0-2h3p2p0-2p0-2h3p2p0-2p0-----2p0-2h3p2p0-2p0-2h3p2p0-2p0-5-|
A|2p0-2h3p2p0-2p0-2h3p2p0-2p0-----2p0-2h3p2p0-2p0-2h3p2p0-2p0---|
D|2p0-2h3p2p0-2p0-2h3p2p0-2p0-----2p0-2h3p2p0-2p0-2h3p2p0-2p0---|
                                                              +
BREAK

e|------------------------------------------------|
B|------------------------------------------------|
G|8-8-8-8-8-8-8-8-8-8-8-8-8-8-8-8-8-8-8-8-8-8-8-8-|
D|7-7-7-7-7-7-7-7-7-7-7-7-7-7-7-7-7-7-7-7-7-7-7-7-|
A|6-6-6-6-6-6-6-6-6-6-6-6-6-6-6-6-6-6-6-6-6-6-6-6-|
D|6-6-6-6-6-6-6-6-6-6-6-6-6-6-6-6-6-6-6-6-6-6-6-6-|

Chorus ("I've Got A Handle on the Fiction")

e|-0---0---0--0--0--0---------0---0---0--0--0--0----|
B|-0---0---0--0--0--0---------0---0---0--0--0--0----|
G|-6---6---6--6--6--6---------6---6---6--6--6--6----|
D|-7---7---7--4--6--6---------7---7---7--4--6--6----|
A|5--5---5----2--4--0-------5---5---5----2--4--0----|
D|0--0---0-------4----------0---------------4-------|

e|-0---0---0--0--0------------0---0---0--0--0--0--12--|
B|-0---0---0--0--0-x----------0---0---0--0--0--0--15^-|
G|-6---6---6--6--6-x----------6---6---6--6--6--6------|
D|-7---7---7--7--6-x-6-6-6----7---7---7--4--6--6------|
A|5--5---5----5--4-x-0-0-0--5---5---5----2--4--0------|
D|0--0---0----0--4----------0---------------4---------|

Interlude

e|0------------------|
B|0------------------|
G|0------------------|
D|0------------------|
A|-------------------|
D|---5-6-3-4-3-1-8-7-|
     TREMELO PICKING

e|-----------------------0-----|
B|-----------------------0-5---|
G|-----------------------0-7^--|
D|2p0-2h3p2p0--------2p0-0-----|
A|2p0-2h3p2p0--(x6)--2p0-------|
D|2p0-2h3p2p0--------2p0-------|

e|-----------------------0-----|
B|-----------------------0-5---|
G|-----------------------0-7^--|
D|2p0-2h3p2p0--------2p0-0-----|
A|2p0-2h3p2p0--(x6)--2p0-------|
D|2p0-2h3p2p0--------2p0-------|

e|4-------4-------4-------3-------|
B|5-------5-------4-------4-------|
G|8-(x24)-6-(x24)-4-(x24)-3-(x24)-|
D|--------------------------------|
A|--------------------------------|
D|--------------------------------|

Chorus ("I've Got A Handle on the Fiction")

e|-0---0---0--0--0--0---------0---0---0--0--0--0----|
B|-0---0---0--0--0--0---------0---0---0--0--0--0----|
G|-6---6---6--6--6--6---------6---6---6--6--6--6----|
D|-7---7---7--4--6--6---------7---7---7--4--6--6----|
A|5--5---5----2--4--0-------5---5---5----2--4--0----|
D|0--0---0-------4----------0---------------4-------|

e|------------------0-0-0-0-12---|
B|------------------0-0-0-0-15^--|
G|--------------2-2-6-6-6-6------|
D|7-7-7-6-4-4-4-2-2-7-4-6-6------|
A|4-4-4-4-4-4-4-4-4-0-2-4-0------|
D|------------------0---4--------|

Outro

e|--------------------------------------------------|
B|--------------------------------------------------|
G|--------------------------------------------------|
D|2p0-2h3p2p0-2p0-2h3p2p0-(x5)--2-0-2-3-2-0---2-0-2-|
A|2p0-2h3p2p0-2p0-2h3p2p0-------2-0-2-3-2-0---2-0-2-|
D|2p0-2h3p2p0-2p0-2h3p2p0-------2-0-2-3-2-0---2-0-2-|
                                p.m.--------|


| /  slide up
| \  slide down
| h  hammer-on
| p  pull-off
| ~  vibrato
| +  harmonic
| x  Mute note
| P.M.------|  Palm Mute
===============================================================================
Добавлено: 31.07.2012
Другие материалы по этой песне:

Страница создана 20.06.2012
http://primanota.ru/glassjaw/you-think-youre-john-fucking-lennon-chords.htm
Привет, Гость.
Предлагаем пройти революционный курс по гитаре.
Подарок от PrimaNota.Ru, забирай!