PrimaNota.ru - самый крупный в мире бесплатный архив песенных текстов, аккордов, табулатур и нот


Glassjaw - The Snow Veil - текст песни, таба, видео

Регистрация Запомнить меня
Войти через:  Facebook Google Twitter Vk Yandex Mail.ru

Glassjaw - The Snow Veil - текст песни, таба, видео

Печатать
Просмотров: 107
Song: The Snow Veil
Artist: Glassjaw
Album: Kiss Kiss Bang Bang

Really surprised that there wasn't a tab up for this awesome song.  Well, here it is!


KEY

x = mute
D = strum down
U = strum up
PM = palm mute
/ = legato slide
p = pull off


Intro
     
      D    U  D  U  D    U  D  U  D    U  D  U  D    U  D  U
e|-------------------------------------------------------------|
B|-------------------------------------------------------------|
G|-------------------------------------------------------------|
D|---11---11-11-11-11---11-11-11-14---14-14-14-14---14-14-14---|
A|----x----x--x--x--x----x--x--x--x----x--x--x--x----x--x--x---|
E|----9----9--9--9--9----9--9--9-12---12-12-12-12---12-12-12---|

     D   U D U  D    U  D  U   D   D   D   D
e|---------------------------------------------|
B|---------------------------------------------|
G|---------------------------------------------|
D|---9---9-9-9-11---11-11-11---7---7---7---7---|
A|---x---x-x-x--x----x--x--x---x---x---x---x---|
E|---7---7-7-7--9----9--9--9---5---5---5---5---|

Verse

      D    U  D  U  D    U  D  U  D    U  D  U  D    U  D  U
e|-------------------------------------------------------------|
B|-------------------------------------------------------------|
G|-------------------------------------------------------------|
D|---11---11-11-11-11---11-11-11-14---14-14-14-14---14-14-14---|
A|----x----x--x--x--x----x--x--x--x----x--x--x--x----x--x--x---|
E|----9----9--9--9--9----9--9--9-12---12-12-12-12---12-12-12---|

     D   U D U  D    U  D  U   D   U D U D   U D U
e|---------------------------------------------------|
B|---------------------------------------------------|
G|---------------------------------------------------|
D|---9---9-9-9-11---11-11-11---7---7-7-7-9---9-9-9---|
A|---x---x-x-x--x----x--x--x---x---x-x-x-x---x-x-x---|
E|---7---7-7-7--9----9--9--9---5---5-5-5-7---7-7-7---|

Break Riff A
     D   U D U D   U D U D   U D U D D   D
e|-------------------------------------------|
B|-------------------------------------------|
G|-------------------------------------------|
D|---4---4-4-4-4---4-4-4-4---4-4-4-4-2---2---|
A|---4---4-4-4-4---4-4-4-4---4-4-4-4-2---2---|
E|---2---2-2-2-2---2-2-2-2---2-2-2-2-0---0---|
                                   PM-----|

Break Riff B

     D U D U D
e|------------------|
B|------------------|
G|------------------|
D|---9-9-9-9-9/10---|
A|---x-x-x-x-x--x---|
E|---7-7-7-7-7-/8---|

Breakdown A

     D   D D D   D   D D D   D   D D D   D   D D D
e|---------------------------------------------------|
B|---------------------------------------------------|
G|---------------------------------------------------|
D|---2---2-2-2---4---4-4-4---5---5-5-5---5---5-5-5---|
A|---2---2-2-2---4---4-4-4---5---5-5-5---5---5-5-5---|
E|---0---0-0-0---2---2-2-2---3---3-3-3---3---3-3-3---|
   PM-------|  PM-------|  PM-------|  PM-------|

Middle Chord

e|--------|
B|--------|
G|--------|
D|---13---|
A|----x---|
E|---11---|

Bridge 
    
     D       D       D       D       D D D D D D D D D D D D
e|-------------------------------------------------------------|
B|-------------------------------------------------------------|
G|-------------------------------------------------------------|
D|---12/13---12/13---12/13---12/13---2-2-2-2-2-2-2-2-2-2-2-2---|
A|----x--x----x--x----x--x----x--x---2-2-2-2-2-2-2-2-2-2-2-2---|
E|---10/11---10/11---10/11---10/11---0-0-0-0-0-0-0-0-0-0-0-0---|
                                   PM-----------------------|

Breakdown B

     D D   D D   D D   D D   D D   D D   D D   D D
e|---------------------------------------------------|
B|---------------------------------------------------|
G|---------------------------------------------------|
D|---2-2---2-2---2-2---2-2---2-2---2-2---2-2---2-2---|
A|---2-2---2-2---2-2---2-2---2-2---2-2---2-2---2-2---|
E|---0-0---0-0---0-0---0-0---0-0---0-0---0-0---0-0---|
   PM---------------------------------------------|

Background Riff

     D   D     D   D       D   D     D   D D
e|---------------------------------------------|
B|-------5p0-------------------5p0-------------|
G|---2p0-------1p0-4p0-----2p0-------1p0-0-0---|
D|---------------------------------------------|
A|---------------------------------------------|
E|---------------------------------------------|

Breakdown C
     
     D U D U D U D U D U D U D U D U D U D U D U D U
e|-----------------------------------------------------|
B|-----------------------------------------------------|
G|---9-9-9-9-9-9-7-7-7-7-7-7-5-5-5-5-5-5-5-5-5-5-5-5---|
D|---9-9-9-9-9-9-7-7-7-7-7-7-5-5-5-5-5-5-5-5-5-5-5-5---|
A|---7-7-7-7-7-7-5-5-5-5-5-5-3-3-3-3-3-3-3-3-3-3-3-3---|
E|-----------------------------------------------------|

Outro

     D D   D D   D D   D D   D D   D D
e|---------------------------------------|
B|---------------------------------------|
G|---------------------------------------|
D|---2-2---2-2---2-2---2-2---2-2---2-2---|
A|---2-2---2-2---2-2---2-2---2-2---2-2---|
E|---0-0---0-0---0-0---0-0---0-0---0-0---|
   PM---------------------------------|


Playing Order

Intro x1
Verse x4
Break Riff A x4
Break Riff B x4
Breakdown A x4
Middle Chord x1
Verse x4
Break Riff A x4
Breakdown A x4
Bridge x4
Breakdown B x1
Breakdown B x4 + Background Riff x2
Breakdown B x4 + Breakdown C x4
Outro x1
Добавлено: 25.05.2012
Другие материалы по этой песне:
  • Аккорды и текст

Страница создана 25.05.2012
http://primanota.ru/glassjaw/the-snow-veil-chords.htm
Привет, Гость.
Предлагаем пройти революционный курс по гитаре.
Подарок от PrimaNota.Ru, забирай!