PrimaNota.ru - самый крупный в мире бесплатный архив песенных текстов, аккордов, табулатур и нот


Glassjaw - Stuck Pig - текст песни, таба, видео

Регистрация Запомнить меня
Войти через:  Facebook Google Twitter Vk Yandex Mail.ru

Glassjaw - Stuck Pig - текст песни, таба, видео

Печатать
Просмотров: 132
-------------------------------------------------------------------------------
                             Stuck Pig - Glassjaw
-------------------------------------------------------------------------------
Tabbed by:IbanezUchiha


This is what I could decipher from this song,any additions or corrections please
feel free to let me know and i'll re-post
with the appropriate recognition blah blah blah GLASSJAW!

PRO-TIP:The slides go all the way up the neck

e|-2-2-2-2-2-2-2-2-2-2-2-2-----|
B|-2-2-2-2-2-2-2-2-2-2-2-2-----|
G|-4-4-4-4-4-4-4-4-4-4-4-4-----|
D|-3-3-3-3-3-3-3-3-3-3-3-3-----|
A|-2-2-2-2-2-2-2-2-2-2-2-2-1/--|
D|-------------------------1/--|

OR

It could be

e|---------------------------------------------------------------------|
B|---------------------------------------------------------------------|
G|---------------------------------------------------------------------|
D|--11-11-11-11-11-11-11-11-11-11-11-11--------------------------------|
A|--9--9--9--9--9--9--9--9--9--9--9--9--1/-----------------------------|
D|--9--9--9--9--9--9--9--9--9--9--9--9--1-/----------------------------|

Wah-licious

0:07
e|--------------xxxxxx-0----------xxx-0-----------------------------|
B|--------------xxxxxx-0----------xxx-0-----------------------------|
G|--7/8-7-5-7^--xxxxxx-0----------xxx-0-----------------------------|
D|--x-x-x-x-x---xxxxxx-0----------xxx-0-----------------------------|
A|--5\6-5-3-5^--xxxxxx-0-1-1/-----xxx-------------------------------|
D|--------------xxxxxx---1-1/-----xxx-------------------------------|


0:32
e|------------------------------------------------------------------------------|
B|------------------------------------------------------------------------------|
G|------------------------------------------------------------------------------|
D|-11-11-11-11-11-11-11-11-5--5--5--5--5-3--3--3--------------------------------|
A|-9--9--9--9--9--9--9--9--3--3--3--3--3/1--1--1--------------------------------|
D|-9--9--9--9--9--9--9--9--3--3--3--3--3/1--1--1--------------------------------|

Guitar Two
e|------------------------------------------------------------------------------|
B|------------------------------------------------------------------------------|
G|------------------------------------------------------------------------------|
D|-11-11-11-11-11-11-11-11-5--5--5--5--5-10-1010--------------------------------|
A|-9--9--9--9--9--9--9--9--3--3--3--3--3/8--8--8--------------------------------|
D|-9--9--9--9--9--9--9--9--3--3--3--3--3/8--8--8--------------------------------|

e|------------------------------------------------------------------------------|
B|------------------------------------------------------------------------------|
G|------------------------------------------------------------------------------|
D|-3/(8)------0----0------3-5-3h5p3---5-5-5-5-5/3-3-3-3-------------------------|
A|-3/(8)0-0-0-0-00-0--3-5-----------5-3-3-3-3-3/1-1-1-1-------------------------|
D|-3/(8)0-0-0-0-00-0------------------3-3-3-3-3/1-1-1-1-------------------------|
                .   .   .         . .
Добавлено: 06.04.2012
Другие материалы по этой песне:
  • Аккорды и текст

Страница создана 06.04.2012
http://primanota.ru/glassjaw/stuck-pig-chords.htm
Привет, Гость.
Предлагаем пройти революционный курс по гитаре.
Подарок от PrimaNota.Ru, забирай!