PrimaNota.ru - самый крупный в мире бесплатный архив песенных текстов, аккордов, табулатур и нот


Glass Harp - Look In The Sky - таба, видео

Регистрация Запомнить меня
Войти через:  Facebook Google Twitter Vk Yandex Mail.ru

Glass Harp - Look In The Sky - таба, видео

Печатать
Просмотров: 162
Look in the sky partial tab


||--3---3---3---3---|-3---3---3---3----||
||o-3---3---3---3---|-3---3---3---3---o||
||--5---5---5---5---|-4---4---4---4----||
||--3---3---3---3---|-3---3---3---3----||
||o-5---5---5---5---|-5---5---5---5---o||
||--3-3-3-3-3-3-3-3-|-3-3-3-3-3-3-3-3--||


      $
                                         4x
|-||--3---3---3---3---|-3---3---3---3----||
|-||o-3---3---3---3---|-3---3---3---3---o||
|-||--5---5---5---5---|-4---4---4---4----||
|-||--3---3---3---3---|-3---3---3---3----||
|-||o-5---5---5---5---|-5---5---5---5---o||
|-||--3-3-3-3-3-3-3-3-|-3-3-3-3-3-3-3-3--||


|-----------------|-----------------|-----------------|-----------------|
|-6---6---6---6---|-5---5---5---5---|-6---6---6---6---|-5---5---5---5---|
|-3---3---3---3---|-3---3---3---3---|-3---3---3---3---|-3---3---3---3---|
|-5---5---5---5---|-5---5---5---5---|-5---5---5---5---|-5---5---5---5---|
|-3-3-3-3-3-3-3-3-|-3-3-3-3-3-3-3-3-|-3-3-3-3-3-3-3-3-|-3-3-3-3-3-3-3-3-|
|-----------------|-----------------|-----------------|-----------------|


|-----------------|-----------------|-----------------|--------------|
|-8---8---8---8---|-7---7---7---7---|-8---8---8---8---|-7---7---7----|
|-5---5---5---5---|-5---5---5---5---|-5---5---5---5---|-5---5---5----|
|-7---7---7---7---|-7---7---7---7---|-7---7---7---7---|-7---7---7----|
|-5-5-5-5-5-5-5-5-|-5-5-5-5-5-5-5-5-|-5-5-5-5-5-5-5-5-|-5-5-5-5-5----|
|-----------------|-----------------|-----------------|--------------|


                                                                  D.S.
|-3---3---3---3---|-3---3---3---3---|-3---3---3---3---|-3---3---3---3---|
|-3---3---3---3---|-3---3---3---3---|-3---3---3---3---|-3---3---3---3---|
|-5---5---5---5---|-4---4---4---4---|-5---5---5---5---|-4---4---4---4---|
|-3---3---3---3---|-3---3---3---3---|-3---3---3---3---|-3---3---3---3---|
|-5---5---5---5---|-5---5---5---5---|-5---5---5---5---|-5---5---5---5---|
|-3-3-3-3-3-3-3-3-|-3-3-3-3-3-3-3-3-|-3-3-3-3-3-3-3-3-|-3-3-3-3-3-3-3-3-|


    Q=80
||--3---3---3---3-----|-3---3---3---3-----|
||o-3---3---3---3-----|-3---3---3---3-----|
||--5---5---5---5-----|-4---4---4---4-----|
||--3---3---3---3-----|-3---3---3---3-----|
||o-5---5---5---5-----|-5---5---5---5-----|
||--3-3-3-3-3-3-3-3-3-|-3-3-3-3-3-3-3-3-3-|


|-3---3---3---3-----|-3---3---3---3-------||
|-3---3---3---3-----|-3---3---3---3------o||
|-5---5---5---5-----|-4---4---4---4-------||
|-3---3---3---3-----|-3---3---3---3-------||
|-5---5---5---5-----|-5---5---5---5------o||
|-3-3-3-3-3-3-3-3-3-|-3-3-3-3-3-3-3-3-3---||


|-------3-(3)-------3---|-------5-3---------------|
|-----3---------------3-|-----3----------3--------|
|---5-----------5-------|---4----------4----------|
|-5-----------5---5-----|-5----------5-----5-(5)--|
|-----------------------|-------------------------|
|-----------------------|-------------------------|


|-------3-(3)-------3---|-------5-3---------------------|
|-----3---------------3-|-----3----------3-----------3--|
|---5-----------5-------|---4----------4---------2s4----|
|-5-----------5---5-----|-5----------5-----5-(5)--------|
|-----------------------|-------------------------------|
|-----------------------|-------------------------------|


|--------------------|-------0-------1-0-------|-------------------------|
|--------------------|-1-3-----3-----------3-1-|-0h1p0h1p0---------------|
|-4s2-2-2s4s2-0s2-2--|-------------2-----2-----|---------------------0-2-|
|--------------------|-----3-----3-------------|-0h2p0h2p0-------0-2-----|
|--------------------|-------------------------|-------------0-2---------|
|--------------------|-------------------------|-------------------------|


|----------------|---------------------|
|--------------3-|---------------------|
|-4--4--4--2-4---|-4s2-2-0S2S4S7S4S2S0-|
|----------------|---------------------|
|----------------|---------------------|
|----------------|---------------------|


|-------0-------1-0-------|--------------------------------|
|-1-3-----3-----------3-1-|-0h1p0h1p0----------------------|
|-------------2-----2-----|---------------------------7-9--|
|-----3-----3-------------|-0h2p0h2p0-----------5-7-9------|
|-------------------------|-----------------5h7------------|
|-------------------------|-----------3h5s7----------------|


|----------10---------10---------------------|--------------------|
|----10-12----12pb13r====12-10-------------3-|--------------------|
|-12---------------------------12-11-9-2s4---|-4s2-2-2s4s2-0s2-2--|
|--------------------------------------------|--------------------|
|--------------------------------------------|--------------------|
|--------------------------------------------|--------------------|


                                   ~~~~~~
|-------0-------1-0-------|-------10--10--10-8-10-|
|-1-3-----3-----------3-1-|-0h1p0-----------------|
|-------------2-----2-----|-----------------------|
|-----3-----3-------------|-0h2p0-----------------|
|-------------------------|-----------------------|
|-------------------------|-----------------------|


|-8-7-8-10----7----------------------|----------------------------------------|
|----------10---8-----------------15-|--------------------12h13p12------------|
|-----------------7b9r(7)---12s16----|-14pb16r=(14)-12-14----------12S14-14---|
|------------------------------------|----------------------------------------|
|------------------------------------|----------------------------------------|
|------------------------------------|----------------------------------------|


|----------12----------13-12----------|
|-13-15-------15----------------15-13-|
|-------------------14-------14-------|
|-------15-------15-------------------|
|-------------------------------------|
|-------------------------------------|


|-12----------------------------------------------------------------------|
|-12h13p12h13p12h13p12h13-12-13-12-13-12-13-12-13-12-13-12-13-12-13-12-13-|
|-12----------------------------------------------------------------------|
|-12----------------------------------------------------------------------|
|-------------------------------------------------------------------------|
|-------------------------------------------------------------------------|


  H=H
|-------------------------------------------------------------------------15\--|
|-12-13-12-13-12-13-12-13-12-13-12-13-12-13-12-13-12-13-12-13-12-13-12-13-15\--|
|-------------------------------------------------------------------------16\--|
|-------------------------------------------------------------------------17\--|
|------------------------------------------------------------------------------|
|------------------------------------------------------------------------------|


    Q=90
||--3--3-----3--3-----|-3--3-----3--3-----|
||o-1--1-1-1-1--1-1-1-|-3--3-3-3-3--3-3-3-|
||--2--2-2-2-2--2-2-2-|-4--4-4-4-4--4-4-4-|
||--3--3-3-3-3--3-3-3-|-5--5-5-5-5--5-5-5-|
||o-------------------|-------------------|
||--------------------|-------------------|


|-3--3-----3--3-----|-3--3-----3--3------||
|-1--1-1-1-1--1-1-1-|-3--3-3-3-3--3-3-3-o||
|-2--2-2-2-2--2-2-2-|-4--4-4-4-4--4-4-4--||
|-3--3-3-3-3--3-3-3-|-5--5-5-5-5--5-5-5--||
|-------------------|-------------------o||
|-------------------|--------------------||


|---------------------|
|-1--1----------------|
|-2--2----------------|
|-2--2----------------|
|-0--0--------0-------|
|-------0--3-----3----|

......So Far
Добавлено: 30.05.2015
Вам также может быть интересно:
Другие материалы по этой песне:
  • Аккорды и текст

Страница создана 30.05.2015
http://primanota.ru/glass-harp/look-in-sky-chords.htm
Привет, Гость.
Предлагаем пройти революционный курс по гитаре.
Подарок от PrimaNota.Ru, забирай!