PrimaNota.ru - самый крупный в мире бесплатный архив песенных текстов, аккордов, табулатур и нот


Glass Caves - Why Stay - аккорды и текст, видео

Регистрация Запомнить меня
Войти через:  Facebook Google Twitter Vk Yandex Mail.ru

Glass Caves - Why Stay - аккорды и текст, видео

Печатать
Просмотров: 91
Why Stay
Glass Caves
Song: Why Stay?
Artist: Glass Caves
Tab/Chords: Bluedudeinahole

Link to the music video: https://www.youtube.com/watch?v=1BTiyUBr9hY
Link to video this was created from: https://www.youtube.com/watch?v=_rolqwn-IWs 

Chords:

Am
  E|--5--
  B|--5--
  G|--5--
  D|--6--
  A|--6--
  E|--5--

F
  E|--1--
  B|--1--
  G|--2--
  D|--3--
  A|--3--
  E|--1--

G
  E|--3--
  B|--3--
  G|--4--
  D|--5--
  A|--5--
  E|--3--

Dm
  E|--5--
  B|--6--
  G|--7--
  D|--7--
  A|--5--
  E|--5--

C
  E|--5--
  B|--6--
  G|--7--
  D|--7--
  A|--5--
  E|--5--

Main Riff:

E|--------------------------------------------------|
B|--------------------------------------------------|
G|--------------------------------------------------|
D|--------------------------------------------------|
A|--------------------------------------5--5-----5--|
E|--5--5--8--5--8--5--5--1--1--5--8--5--------8-----|

E|--------------------------------------------------------|
B|--------------------------------------------------------|
G|--------------------------------------7--5--7--9--7--5--|
D|--------------------------------------------------------|
A|--------------------------------------------------------|
E|--5--5--8--5--8--5--5--1--1--5--8--5--------------------|

(repeatedly play the fifth fret of the bottom E string until the star *, then play Riff 1)
Riff 1 (Palm Mute)

E|--------------------------------------------------------------------|
B|--------------------------------------------------------------------|
G|--------------------------------------------------------------------|
D|--------------------------------------------------------------------|
A|--------------------------------------------------------------------|
E|--5--5--5--5--5--5--5--5--5--5--5--1--1--1--1--1--3--3--3--3--3--3--|

Verse:

  The future of you and me you have stolen.

  Because of the lies you told me the end has begun.

  *Do I still want you my loved one, or should I leave this now, turn away and run.

  Am                                 F  G
  The sun still shines over you and me.
  Am                                 F  G
  Without you now baby where would I be?

Chorus:
(Main Riff)
Am                            F  G
  So darling why would I stay?
Am                                   F  G
  When I never never never feel good!
Am                          F  G
  Darling, why would I stay?
Am                                    F  G
  If you told me to leave then I would.

Verse:
(Pause)
  You cannot fix this with just one kiss.
(Riff 1)
  I am scared that I will regret this.
  I'm sure one day I will reminisce.
  And remember the good times we had; I wanna relive.
  Am                                 F  G
  The sun still shines over you and me.
  Am                                 F  G
  Without you now baby where would I be?

Chorus:
(Main Riff)
Am                            F  G
  So darling why would I stay?
Am                                   F  G
  When I never never never feel good!
Am                          F  G
  Darling, why would I stay?
Am                                    F  G
  If you told me to leave then I would.

Bridge:
    Dm Am    C
  So show me why I can't go.
  G
  You can't I know.
  Dm Am   C
  Show me why I can't go.
  G
  You can't I know.

Break:
Riff 1  x1
Am  F G

Chorus:
(Main Riff)
Am                            F  G
  So darling why would I stay?
Am                                   F  G
  When I never never never feel good!
Am                          F  G
  Darling, why would I stay?
Am                                    F  G
  If you told me to leave then I would.

Bridge:
    Dm Am                             C G   
  So show me, darling why I should stay when I never feel good.
 Dm Am                             C 
  Show me, darling why I should stay.
  G
  Why I should stay?
  F                                 Am
  The sun still shines over you and me.
  C (one strum)                      G (one strum)
  Without you now baby where would I be?
Добавлено: 01.01.2016
Другие материалы по этой песне:
  • Аккорды и текст

Страница создана 01.01.2016
http://primanota.ru/glass-caves/why-stay-chords.htm
Привет, Гость.
Предлагаем пройти революционный курс по гитаре.
Подарок от PrimaNota.Ru, забирай!