PrimaNota.ru - самый крупный в мире бесплатный архив песенных текстов, аккордов, табулатур и нот


Glasnom - Voen Veteran War Veteran - таба

Регистрация Запомнить меня
Войти через:  Facebook Google Twitter Vk Yandex Mail.ru

Glasnom - Voen Veteran War Veteran - таба

Печатать
Просмотров: 64
GLASNOM - Voen Veteran / War Veteran
http://glasnom.com/

Intro #1   X1
Intro #2   X4
Main riff  X8
Riff #1    X4
Riff #2    X2
Main riff  X8
Riff #1    X12
Main riff  X8
Bridge     X8
Main riff  X8
Intro #1   X1
Intro #2   X4
Riff #1    X1

Intro #1:
E|------------------------------------------------|
B|------------------------------------------------|
G|------------------------------------------------|
D|---2---4---5~~~~~~~~~-------5---4---2~~~~~~~~~--|
A|---2---4---5~~~~~~~~~-------5---4---2~~~~~~~~~--|
E|---0---2---3~~~~~~~~~-------3---2---0~~~~~~~~~--|

Intro #2:
E|------------------------------------------------|
B|------------------------------------------------|
G|------------------------------------------------|
D|------------------------------------------------|
A|------------------------------------------------|
E|0-0-0-2-2-2-3-3-3-0-0-0-5-5-5-6-6-6-0-0-0-3-3-3-|

Main riff:
E|--------------------------------|
B|--------------------------------|
G|--------------------------------|
D|2---4---5---2---7---8---2---5---|
A|2---4---5---2---7---8---2---5---|
E|0---2---3---0---5---6---0---3---|

Riff #1:
E|------------------------------|
B|------------------------------|
G|------------------------------|
D|--2-------4/5---7/8-----5--5--|
A|--2-------4/5---7/8-----5--5--|
E|--0---0-0-2/3-0-5/6-0-0-3--3--|
        x x     x     x x

Riff #2:
E|--------------------------------------------------------|
B|--------------------------------------------------------|
G|--------------------------------------------------------|
D|--2---------------------5---2---------------------7-----|
A|--2---------------------5---2---------------------7-----|
E|--0-0-0-0---0-0---0-0---3---0-0-0-0---0-0---0-0---5-----|
      x x x   x x   x x         x x x   x x   x x

E|--------------------------------------------------------|
B|--------------------------------------------------------|
G|--------------------------------------------------------|
D|--2---------------------8---2---------------------------|
A|--2---------------------8---2---------------------------|
E|--0-0-0-0---0-0---0-0---6---0-0-0-0---0-0---0-0--6-5-3--|
      x x x   x x   x x         x x x   x x   x x

Bridge:
E|----------------------------------------------------------------|
B|----------------------------------------------------------------|
G|----------------------------------------------------------------|
D|--2-----------5---2-----------7---2-----------8---2-------------|
A|--2-----------5---2-----------7---2-----------8---2-------------|
E|--0-----------3---0-----------5---0-----------6---2-------6-5-3-|
Добавлено: 09.06.2013
Другие материалы по этой песне:
  • Аккорды и текст

Страница создана 09.06.2013
http://primanota.ru/glasnom/voen-veteran-war-veteran-chords.htm
Привет, Гость.
Предлагаем пройти революционный курс по гитаре.
Подарок от PrimaNota.Ru, забирай!