PrimaNota.ru - самый крупный в мире бесплатный архив песенных текстов, аккордов, табулатур и нот


Glamour Of The Kill - Feeling Alive - таба, бас-таба, видео

Регистрация Запомнить меня
Войти через:  Facebook Google Twitter Vk Yandex Mail.ru

Glamour Of The Kill - Feeling Alive - таба, бас-таба, видео

Печатать
Просмотров: 244
-------------------------------------------------------------------------------
                             FEELING ALIVE - Glamour Of The Kill
-------------------------------------------------------------------------------
Tabbed by: Kris Brown
Email: Krissy_Vengeance@hotmail.co.uk

Tuning: Drop C#

Intro:

D#|-------------------------|
A#|-------------------------|
F#|-------------------------|
C#|-----777-----555---------|
G#|-000-555-333-333-55-33---| x4
C#|-000-----333-----55-33---|
    *** *** *** *** ** **

Main Riff:

D#|-------------------------|      
A#|-------------------------|
F#|-----777-----555---------|
C#|-000-777-333-555-55-33---|
G#|-000-555-333-333-55-33---| x3 
C#|-000-----333-----55-33---|

D#|-------------------------|      
A#|-------------------------|
F#|-33333333--5555555-------|
C#|-33333333--5555555-------|
G#|-11111111--3333333-------| 
C#|-------------------------|

Verse 1: (Guitar 1)

D#|-------------------------|      
A#|-------------------------|
F#|-------------------------|
C#|-------------------------|
G#|-0000--------------------| x3 
C#|-0000--------------------|
    ****

Verse 1: (Guitar 2)

D#|-------------------------|
A#|-------------------------|
F#|-------------------------|
C#|-------------------------|
G#|-----555-----333---------| x3
C#|-000-----333-----55-33---|
    *** *** *** *** ** **

BOTH GUITARS:

D#|-------------------------|      
A#|-------------------------|
F#|-33333333--5555555-------|
C#|-33333333--5555555-------|
G#|-11111111--3333333-------| 
C#|-------------------------|

REPEAT Verse 1.

Chorus:

D#|--------------------------------|      
A#|--------------------------------|
F#|-7-77-7----------5-55-5-7-77-77-|
C#|-7-77-7-3-33-33--5-55-5-7-77-77-|
G#|-5-55-5-3-33-33--3-33-3-5-55-55-| 
C#|--------3-33-33-----------------|

D#|----------------------------------|      
A#|----------------------------------|
F#|-7-77-7---------33333333-55555555-|
C#|-7-77-7-3-33-33-33333333-55555555-|
G#|-5-55-5-3-33-33-11111111-55555555-| 
C#|--------3-33-33-------------------|

REPEAT Chorus.

REPEAT Main Riff.

Verse 2: (Both Guitars)

D#|-------------------------|      
A#|-------------------------|
F#|-------------------------|
C#|-------------------------|
G#|-0000--------------------| x3 
C#|-0000--------------------|
    ****

D#|-------------------------|      
A#|-------------------------|
F#|-33333333--5555555-------|
C#|-33333333--5555555-------|
G#|-11111111--3333333-------| 
C#|-------------------------|

Verse 2: (Guitar 1)

D#|-------------------------|      
A#|-------------------------|
F#|-------------------------|
C#|-------------------------|
G#|-0000--------------------| x3 
C#|-0000--------------------|

Verse 2: (Guitar 2)

D#|-------------------------|
A#|-------------------------|
F#|-------------------------|
C#|-------------------------|
G#|-----555-----333---------| x3
C#|-000-----333-----55-33---|
    *** *** *** *** ** **

BOTH GUITARS:

D#|-------------------------|      
A#|-------------------------|
F#|-33333333--5555555-------|
C#|-33333333--5555555-------|
G#|-11111111--3333333-------| 
C#|-------------------------|

REPEAT Chorus x2.

Breakdown:

D#|-------------------------|      
A#|-------------------------|
F#|-77-5-7---33---5---------|
C#|-77-5-7---33-3-5---------|
G#|-55-3-5---11-3-3---------| x2
C#|-------------3-----------|


REPEAT Breakdown through Solo.

Main Riff:

D#|-------------------------|      
A#|-------------------------|
F#|-----777-----555---------|
C#|-000-777-333-555-55-33---|
G#|-000-555-333-333-55-33---| x3 
C#|-000-----333-----55-33---|

Chorus:

D#|--------------------------------|      
A#|--------------------------------|
F#|-7-77-7----------5-55-5-7-77-77-|
C#|-7-77-7-3-33-33--5-55-5-7-77-77-|
G#|-5-55-5-3-33-33--3-33-3-5-55-55-| 
C#|--------3-33-33-----------------|

D#|----------------------------------|      
A#|----------------------------------|
F#|-7-77-7---------33333333-55555555-|
C#|-7-77-7-3-33-33-33333333-55555555-|
G#|-5-55-5-3-33-33-11111111-55555555-| 
C#|--------3-33-33-------------------|

REPEAT Chorus.

Outro:

D#|------------------------------------|      
A#|------------------------------------|
F#|--------------------------333-555---|
C#|--------------------------333-555---|
G#|----------00-00-----------111-333---| x4 
C#|-65365365-00-00--65365365-----------|
             ** **
D#|-------------------------|      
A#|-------------------------|
F#|-77-5-7------------------|
C#|-77-5-7------------------|
G#|-55-3-5------------------|  
C#|-------------------------|
Добавлено: 13.05.2012
Другие материалы по этой песне:

Страница создана 24.03.2012
http://primanota.ru/glamour-of-the-kill/feeling-alive-chords.htm
Привет, Гость.
Предлагаем пройти революционный курс по гитаре.
Подарок от PrimaNota.Ru, забирай!