PrimaNota.ru - самый крупный в мире бесплатный архив песенных текстов, аккордов, табулатур и нот


Glamour Of The Kill - Break - таба, видео

Регистрация Запомнить меня
Войти через:  Facebook Google Twitter Vk Yandex Mail.ru

Glamour Of The Kill - Break - таба, видео

Печатать
Просмотров: 153
-----------------------------------------------------------------------------------------------------------
                                      Break - Glamour Of The Kill 
-----------------------------------------------------------------------------------------------------------
Tabbed by: PUNC4KE

Tuning: C-G-C-F-A-D

Intro

  Guitar 1
D|--------------------------------------------------------------------------------------------------------|
A|--------------------------------------------------------------------------------------------------------|
F|--------------------------------------------------------------------------------------------------------|
C|--------------------------------------------------------------------------------------------------------|
G|------------5-6-6-6-6-3-5-------------5-6-6-6-6-3-5------------5-6-6-6-6-3-5----------------------------|
C|-0--0-0-0-0----------------0--0-0-0-0---------------0--0-0-0-0---------------3--3-3-3-3-3-6-6-6-6-6-5-5-|

D|--------------------------------------------------------------------------------------------------------|
A|--------------------------------------------------------------------------------------------------------|
F|--------------------------------------------------------------------------------------------------------|
C|--------------------------------------------------------------------------------------------------------|
G|------------5-6-6-6-6-3-5-------------5-6-6-6-6-3-5------------5-6-6-6-6-3-5----------------------------|
C|-0--0-0-0-0----------------0--0-0-0-0---------------0--0-0-0-0---------------3--3-3-3-3-3-6-6-6-6-5-6-5-|

D|--------------------------------------------------------------------------------------------------------|
A|--------------------------------------------------------------------------------------------------------|
F|--------------------------------------------------------------------------------------------------------|
C|--------------------------------------------------------------------------------------------------------|
G|------------5-6-6-6-6-3-5-------------5-6-6-6-6-3-5------------5-6-6-6-6-3-5----------------------------|
C|-0--0-0-0-0----------------0--0-0-0-0---------------0--0-0-0-0---------------3--3-3-3-3-3-6-6-6-6-1-1-1-|

  Guitar 2
D|-----------------------------------------------24b25-|
A|-13b15~----------10b11-13-10-------------------------|
F|--------10-12-10-------------13b14-10-13-10----------|
C|--------------------------------------------12-------|
G|-----------------------------------------------------|
C|-----------------------------------------------------|

Verse 1
 
  Guitar 1
D|----------------------------------------------------------------------------------------------|
A|----------------------------------------------------------------------------------------------|
F|----------------------------------------------------------------------------------------------|Play 
C|----------------------------------------------------------------------------------------------| x2
G|-0--------------------------------0-----------------------------------------------------------|
C|-0--0--0-0--0-0-------------------0--0--0-0--0-0--------------------3--6-6-6-5-5-3--6-6-6-5-5-|

Chorus 1

  Guitar 1
D|--------------------------------------------------------------------------------------------------------|
A|--------------------------------------------------------------------------------------------------------|
F|--------------------------------------------------------------------------------------------------------|
C|--------------------------------------------------------------------------------------------------------|
G|------------5-6-6-6-6-3-5-------------5-6-6-6-6-3-5------------5-6-6-6-6-3-5----------------------------|
C|-0--0-0-0-0----------------0--0-0-0-0---------------0--0-0-0-0---------------3--3-3-3-3-3-6-6-6-6-5-6-5-|

D|--------------------------------------------------------------------------------------------------------|
A|--------------------------------------------------------------------------------------------------------|
F|--------------------------------------------------------------------------------------------------------|
C|--------------------------------------------------------------------------------------------------------|
G|------------5-6-6-6-6-3-5-------------5-6-6-6-6-3-5------------5-6-6-6-6-3-5----------------------------|
C|-0--0-0-0-0----------------0--0-0-0-0---------------0--0-0-0-0---------------3--3-3-3-3-3-6-6-6-6-1-1-1-|

Verse 2

  Guitar 1
D|----------------------------------------------------------------------------------------------|
A|----------------------------------------------------------------------------------------------|
F|----------------------------------------------------------------------------------------------|Play 
C|----------------------------------------------------------------------------------------------| x2
G|-0--------------------------------0-----------------------------------------------------------|
C|-0--0--0-0--0-0-------------------0--0--0-0--0-0--------------------3--6-6-6-5-5-3--6-6-6-5-5-|

Chorus 2

  Guitar 1
D|--------------------------------------------------------------------------------------------------------|
A|--------------------------------------------------------------------------------------------------------|
F|--------------------------------------------------------------------------------------------------------|
C|--------------------------------------------------------------------------------------------------------|
G|------------5-6-6-6-6-3-5-------------5-6-6-6-6-3-5------------5-6-6-6-6-3-5----------------------------|
C|-0--0-0-0-0----------------0--0-0-0-0---------------0--0-0-0-0---------------3--3-3-3-3-3-6-6-6-6-5-6-5-|

D|--------------------------------------------------------------------------------------------------------|
A|--------------------------------------------------------------------------------------------------------|
F|--------------------------------------------------------------------------------------------------------|
C|--------------------------------------------------------------------------------------------------------|
G|------------5-6-6-6-6-3-5-------------5-6-6-6-6-3-5------------5-6-6-6-6-3-5----------------------------|
C|-0--0-0-0-0----------------0--0-0-0-0---------------0--0-0-0-0---------------3--3-3-3-3-3-6-6-6-6-1-1-1-|

Bridge
  
  Guitar 1
D|---------------------------------------------------------------------------------------|
A|---------------------------------------------------------------------------------------|
F|---------------------------------------------------------------------------------------|
C|---------------------------------------------------------------------------------------|
G|---------------------------1--0--1--0--------------------------------------------------|
C|-0-------------------------1--0--1--0---------------------------0------------0-0-0-0-0-|

D|-------------------------------------------------------------------------------------------------------|
A|-------------------------------------------------------------------------------------------------------|
F|-----------------------------------------------------------------------------------------------5-5-5-6-|
C|-------------------------------------------------------------------------------------------------------|
G|-----------------------------------------------------------------------------------------------3-3-3-5-|
C|-0-0-0-0--0-0--0-0-0-0--0-0--0-0--0-0--0-0-0-0--0-0--0-0-0-0-0-0--0-0--0-0-0-0--0-0--3b4r3-0-3---------|

D|--------------------------------------------------------------|
A|--------------------------------------------------------------|
F|--------------------------------------------------------------|
C|--------------------------------------------------------------|
G|--------------------------------------------------------7b8r7-|
C|-0-0-0-0--0-0--0-0-0-0--0-0--0-0-0-0--0-0--3b4r3-0-0-0--------|

D|----------------------------------------------------------------------------------|
A|----------------------------------------------------------------------------------|
F|----------------------------------------------------------------------------------|
C|----------------------------------------------------------------------------------|
G|--------------------------------------------------------7b8r7----------------12\1-|
C|-0-0-0-0--0-0--0-0-0-0--0-0--0-0-0-0--0-0--3b4r3-0-0-0--------0-------------------|

D|--------------------------------------------------------------| ---\
A|--------------------------------------------------------------|     |
F|--------------------------------------------------------------|     |
C|--------------------------------------------------------------|     |
G|--------------------------------------------------------7b8r7-|     |
C|-0-0-0-0--0-0--0-0-0-0--0-0--0-0-0-0--0-0--3b4r3-0-0-0--------|     |
                                                                      |
D|--------------------------------------------------------------|     |
A|--------------------------------------------------------------|     |
F|--------------------------------------------------------------|      \ Play 
C|--------------------------------------------------------------|      /  x2
G|--------------------------------------------------------7b8r7-|     |
C|-0-0-0-0--0-0--0-0-0-0--0-0--0-0-0-0--0-0--3b4r3-0-0-0--------|     |
                                                                      |
D|--------------------------------------------------------------|     |
A|--------------------------------------------------------------|     |
F|--------------------------------------------------------------|     |
C|--------------------------------------------------------------|     |
G|-1--1-1-1-1-1--1-1-1-1-1-1-1-1-3--3-3-3-3-3-3-3-3-3-3-3-3-3b5-|     |
C|--------------------------------------------------------------| ____/

D|--------------------------------------------------------------------------------------------------|
A|--------------------------------------------------------------------------------------------------|
F|--------------------------------------------------------------------------------------------------|
C|--------------------------------------------------------------------------------------------------|
G|------------5-6-6-6-6-3-5-------------5-6-6-6-6-3-5------------5-6-6-6-6-3-5----------------------|
C|-0--0-0-0-0----------------0--0-0-0-0---------------0--0-0-0-0---------------3--3--3--3-3-3-3-3-3-|

Guitar solo

  Guitar 1
D|----------------------------------------------------------------------------------------------|
A|----------------------------------------------------------------------------------------------|
F|----------------------------------------------------------------------------------------------|Play 
C|----------------------------------------------------------------------------------------------| x2
G|-0--------------------------------0-----------------------------------------------------------|
C|-0--0--0-0--0-0-------------------0--0--0-0--0-0--------------------3--6-6-6-5-5-3--6-6-6-5-5-|

  Guitar 2
D|-------------------------------------------------------------------------------------10-13-10-----------|
A|-7---------------7----7---------------7----7b9-----7------------------------------------------13-13b15~-|
F|----10-7----7-10---10----10-7----7-10---10------10---10--7-10-7-------7-7-10-7--------------------------|
C|---------10-------------------10--------------------------------10-10-----------------------------------|
G|--------------------------------------------------------------------------------------------------------|
C|--------------------------------------------------------------------------------------------------------|

D|--------------------------------8------------------------------8-10--------8-10--------10-12-13-|
A|-----------------------8----8b9---8b10~---------10-11-----10-11----8--10-11----8--11-13---------|
F|-12~--10~--7-----7--10---10----------------10-12-----12-10----------10----------14--------------|
C|--------------10-------------------------12-----------------------------------------------------|
G|------------------------------------------------------------------------------------------------|
C|------------------------------------------------------------------------------------------------|

D|-13-12-----13-12----------15-14-----------17-16----------21b22-|
A|------15-13-----15-13----------17-15-----------19-17-----------|
F|---------------------15-14-----------17-16----------19-18------|
C|---------------------------------------------------------------|
G|---------------------------------------------------------------|
C|---------------------------------------------------------------|

Chorus 3

  Guitar 1
D|--------------------------------------------------------------------------------------------------------|
A|--------------------------------------------------------------------------------------------------------|
F|--------------------------------------------------------------------------------------------------------|
C|--------------------------------------------------------------------------------------------------------|
G|------------5-6-6-6-6-3-5-------------5-6-6-6-6-3-5------------5-6-6-6-6-3-5----------------------------|
C|-0--0-0-0-0----------------0--0-0-0-0---------------0--0-0-0-0---------------3--3-3-3-3-3-6-6-6-6-5-6-5-|

D|--------------------------------------------------------------------------------------------------------|
A|--------------------------------------------------------------------------------------------------------|
F|--------------------------------------------------------------------------------------------------------|
C|--------------------------------------------------------------------------------------------------------|
G|------------5-6-6-6-6-3-5-------------5-6-6-6-6-3-5------------5-6-6-6-6-3-5----------------------------|
C|-0--0-0-0-0----------------0--0-0-0-0---------------0--0-0-0-0---------------3--3-3-3-3-3-6-6-6-6-1-1-1-|

D|--------------------------------------------------------------------------------------------------------|
A|--------------------------------------------------------------------------------------------------------|
F|--------------------------------------------------------------------------------------------------------|
C|--------------------------------------------------------------------------------------------------------|
G|------------5-6-6-6-6-3-5-------------5-6-6-6-6-3-5------------5-6-6-6-6-3-5----------------------------|
C|-0--0-0-0-0----------------0--0-0-0-0---------------0--0-0-0-0---------------3--3-3-3-3-3-6-6-6-6-5-6-5-|

D|-----------------------------------------------------------------------------|
A|-----------------------------------------------------------------------------|
F|-----------------------------------------------------------------------------|
C|-----------------------------------------------------------------------------|
G|------------5-6-6-6-6-3-5-------------5-6-6-6-6-3-5------------5-6-6-6-6-3-5-|
C|-0--0-0-0-0----------------0--0-0-0-0---------------0--0-0-0-0---------------|
Добавлено: 25.06.2016
Другие материалы по этой песне:
  • Аккорды и текст

Страница создана 25.06.2016
http://primanota.ru/glamour-of-the-kill/break-chords.htm
Привет, Гость.
Предлагаем пройти революционный курс по гитаре.
Подарок от PrimaNota.Ru, забирай!