PrimaNota.ru - самый крупный в мире бесплатный архив песенных текстов, аккордов, табулатур и нот


Glamour Of The Kill - A Hope In Hell - текст песни, таба, видео

Регистрация Запомнить меня
Войти через:  Facebook Google Twitter Vk Yandex Mail.ru

Glamour Of The Kill - A Hope In Hell - текст песни, таба, видео

Печатать
Просмотров: 243
Уроки эстрадного вокала в Санкт-Петербурге
d|----------------------------------------------|
A|----------------------------------------------|
F|----------------------------------------------|
C|----------------3---5-----------------3---5---|
G|------3---5---7-3---5-------3---5---7-3---5---|
C|-75757-757-757--3---5--75757-757-757--3---5---|

d|----------------------------------------------|
A|----------------------------------------------|
F|----------------------------------------------|
C|----------------3---5-----------------3--5--7-|
G|------3---5---7-3---5-------3---5---7-3--5--7-|
C|-75757-757-757--3---5--75757-757-757--3--5--7-|


d|-------------|-|---------|
A|-------------|-|---------|
F|-------------|-|---------|
C|-------------|-|-3--5--7-|
G|-------------|-|-3--5--7-|
C|-77777-------|-|-3--5--7-|
   |palm muted|

d|-----------------------------------------------------------|
A|-----------------------------------------------------------|
F|-----------------------------------------------------------|
C|-12-10-9-10-12----12/14-12-10-9--12-10-9-10-12-----3--5--7-|
G|---------------12------------------------------12--3--5--7-|
C|---------------------------------------------------3--5--7-|

d|-----------------------------------------------------------|
A|-----------------------------------------------------------|
F|-----------------------------------------------------------|
C|-----------------------------------------------12--3--5--7-|
G|-12-10-9-10-12----12/14-12-10-9--12-10-9-10-12-----3--5--7-|
C|---------------12----------------------------------3--5--7-|

d|---------------------------------------------------------------------|
A|---------------------------------------------------------------------|
F|---------------------------------------------------------------------|
C|-3-xxxxxxxxxxxxxxxxxxx-5-xxxxxxxxxxxxxxxxxxx-7-xxxxxxxxxxxxxxxxxxx-3-|
G|-3-xxxxxxxxxxxxxxxxxxx-5-xxxxxxxxxxxxxxxxxxx-7-xxxxxxxxxxxxxxxxxxx-3-|
C|-3-xxxxxxxxxxxxxxxxxxx-5-xxxxxxxxxxxxxxxxxxx-7-xxxxxxxxxxxxxxxxxxx-3-|


d|--------------------------|
A|--------------------------|
F|--------------------------|
C|-33333--55555--77777------|
G|-33333--55555--77777------|
C|-33333--55555--77777------|

d|---------------------------------------------------------------------|
A|---------------------------------------------------------------------|
F|---------------------------------------------------------------------|
C|----------------3-5-7----------------3-5-7---------------------------|
G|------3---5---7-3-5-7------3---5---7-3-5-7---------------------------|
C|-75757-757-757—3-5-7-75757-757-757--3-5-7---------------------------|
Добавлено: 20.04.2012
Другие материалы по этой песне:

Страница создана 17.04.2012
http://primanota.ru/glamour-of-the-kill/a-hope-in-hell-chords.htm
Привет, Гость.
Предлагаем пройти революционный курс по гитаре.
Подарок от PrimaNota.Ru, забирай!