PrimaNota.ru - самый крупный в мире бесплатный архив песенных текстов, аккордов, табулатур и нот


Gladys Knight - I Heard It Through The Grapevine - текст песни, бас-таба, видео

Регистрация Запомнить меня
Войти через:  Facebook Google Twitter Vk Yandex Mail.ru

Gladys Knight - I Heard It Through The Grapevine - текст песни, бас-таба, видео

Печатать
Просмотров: 234
gladys_knight_and_the pips_i_heard_it_through_the_grapevine.btab

Basstab by Jan Bjorklund, Finland  jani_bjorklund@yahoo.se>
You are welcome to request for basstabs!
Bienvenidos a pedirme transcripciones para el bajo!
Fingering and positions as suggested by TablEdit. 

TablEdited by Jan Bjorklund
Tuning : E A D G 	Time Signature: 4/4

 |       |       |       |        |       |       |       |        
|--------------------------------|--------------------------------|
|0-------------------------------|0-------------------------------|
|--------------------------------|--------------------------------|
|--------------------------------|--------------------------------|

 |       |       |       |        |       |       |       |        
|--------------------------------|--------------------------------|
|0-------------------------------|0-------------------------------|
|--------------------------------|--------------------------------|
|--------------------------------|--------------------------------|

 |       |       |       |        |       |       |       |        
|--------------------------------|--------------------------------|
|0-------------------------------|0-------------------------------|
|--------------------------------|--------------------------------|
|--------------------------------|--------------------------------|

 |       |       |       |        |       |       |       |        
|--------------------------------|--------------------------------|
|0-------------------------------|0-------------------------------|
|--------------------------------|--------------------------------|
|--------------------------------|--------------------------------|

 |       |       |       |        |       |       |       |        
|--------------------------------|--------------------------------|
|0-------------------------------|0-------------------------------|
|--------------------------------|--------------------------------|
|--------------------------------|--------------------------------|

 |       |       |       |        |       |       |       |        
|--------------------------------|--------------------------------|
|0-------------------------------|--------------------------0-----|
|--------------------------------|--------------------------------|
|--------------------------------|--------------------------------|

 |       |       |       |        |       |       |       |        
|--------------------------------|------------------------0---2---|
|----------0---3-------0---------|--------------0-----3-----------|
|--------------------------------|--------------------------------|
|--------------------------------|--------------------------------|

 |       |       |       |        |       |       |       |        
|----------2---2---1-----0-------|------------0---0---------------|
|--------------------------------|--------------------------0-----|
|--------------------------------|--------------------3---4-------|
|--------------------------------|--------------------------------|

 |       |       |       |        |       |       |       |        
|--------------------------------|------------------------0---2---|
|----------0-----3-----0---------|----------0-----0---3-----------|
|--------------------------------|--------------------------------|
|--------------------------------|--------------------------------|

 |       |       |       |        |       |       |       |        
|------------2-2---1---0---------|------------0---0-------0-2---4-|
|--------------------------------|--------------------4-----------|
|--------------------------------|--------------------------------|
|--------------------------------|--------------------------------|

 |       |       |       |        |       |       |       |        
|------------4-4-------2---------|----------0---0-------0---2---4-|
|------------------------------5-|------------------4-------------|
|--------------------------------|--------------------------------|
|--------------------------------|--------------------------------|

 |       |       |       |        |       |       |       |        
|----------4---4-------2---------|0-----------0-0-----------------|
|--------------------------------|------------------3---2---0-----|
|--------------------------------|--------------------------------|
|--------------------------------|--------------------------------|

 |       |       |       |        |       |       |       |        
|--------------------------------|----------------------------0---|
|------------0---3-----0---------|------------0-0---2---3---------|
|--------------------------------|--------------------------------|
|--------------------------------|--------------------------------|

 |       |       |       |        |       |       |       |        
|----------0-----0-------0-------|------------0-0-----------------|
|--------------------------------|------------------3---2---0-----|
|--------------------------------|--------------------------------|
|--------------------------------|--------------------------------|

 |       |       |       |        |       |       |       |        
|--------------------------------|----------------------------0---|
|------------0-3-------0---------|----------0---0-----2-3---------|
|--------------------------------|--------------------------------|
|--------------------------------|--------------------------------|

 |       |       |       |        |       |       |       |        
|----------0---0-------0---------|------------0---0---------------|
|--------------------------------|----------------------------0---|
|--------------------------------|--------------------3---4-------|
|--------------------------------|--------------------------------|

 |       |       |       |        |       |       |       |        
|--------------------------------|--------------------------------|
|----------0---0-----------0-----|0---------0---0-----------0-----|
|--------------------------------|--------------------------------|
|--------------------------------|--------------------------------|

 |       |       |       |        |       |       |       |        
|--------------------------------|--------------------------------|
|0---------0---0-------------0---|0---------0---0-----------0-----|
|--------------------------------|--------------------------------|
|--------------------------------|--------------------------------|

 |       |       |       |        |       |       |       |        
|--------------------------------|--------------------------------|
|0-----------0---0-----------0-0-|----------0---0-------------0---|
|--------------------------------|--------------------------------|
|--------------------------------|--------------------------------|

 |       |       |       |        |       |       |       |        
|--------------------------------|--7---5-------------------------|
|0---------0-----0---------0---0-|----------7---5-----------------|
|--------------------------------|------------------8-----7-5-5---|
|--------------------------------|--------------------------------|

 |       |       |       |        |       |       |       |        
|--------------------------------|------------------------0---2---|
|----------0---3-------0---------|--------------0-----3-----------|
|--------------------------------|--------------------------------|
|--------------------------------|--------------------------------|

 |       |       |       |        |       |       |       |        
|----------2---2---1-----0-------|------------0---0---------------|
|--------------------------------|--------------------------0-----|
|--------------------------------|--------------------3---4-------|
|--------------------------------|--------------------------------|

 |       |       |       |        |       |       |       |        
|--------------------------------|------------------------0---2---|
|----------0-----3-----0---------|----------0-----0---3-----------|
|--------------------------------|--------------------------------|
|--------------------------------|--------------------------------|

 |       |       |       |        |       |       |       |        
|------------2-2---1---0---------|------------0---0-------0-2---4-|
|--------------------------------|--------------------4-----------|
|--------------------------------|--------------------------------|
|--------------------------------|--------------------------------|

 |       |       |       |        |       |       |       |        
|------------4-4-------2---------|----------0---0-------0---2---4-|
|------------------------------5-|------------------4-------------|
|--------------------------------|--------------------------------|
|--------------------------------|--------------------------------|

 |       |       |       |        |       |       |       |        
|----------4---4-------2---------|0-----------0-0-----------------|
|--------------------------------|------------------3---2---0-----|
|--------------------------------|--------------------------------|
|--------------------------------|--------------------------------|

 |       |       |       |        |       |       |       |        
|--------------------------------|----------------------------0---|
|------------0---3-----0---------|------------0-0---2---3---------|
|--------------------------------|--------------------------------|
|--------------------------------|--------------------------------|

 |       |       |       |        |       |       |       |        
|----------0-----0-------0-------|------------0-0-----------------|
|--------------------------------|------------------3---2---0-----|
|--------------------------------|--------------------------------|
|--------------------------------|--------------------------------|

 |       |       |       |        |       |       |       |        
|--------------------------------|----------------------------0---|
|------------0-3-------0---------|----------0---0-----2-3---------|
|--------------------------------|--------------------------------|
|--------------------------------|--------------------------------|

 |       |       |       |        |       |       |       |        
|----------0---0-------0---------|------------0---0---------------|
|--------------------------------|----------------------------0---|
|--------------------------------|--------------------3---4-------|
|--------------------------------|--------------------------------|

 |       |       |       |        |       |       |       |        
|--------------------------------|--------------------------------|
|----------0---0-----------0-----|0---------0---0-----------0-----|
|--------------------------------|--------------------------------|
|--------------------------------|--------------------------------|

 |       |       |       |        |       |       |       |        
|--------------------------------|--------------------------------|
|0---------0---0-------------0---|0---------0---0-----------0-----|
|--------------------------------|--------------------------------|
|--------------------------------|--------------------------------|

 |       |       |       |        |       |       |       |        
|--------------------------------|--------------------------------|
|0-----------0---0-----------0-0-|----------0---0-------------0---|
|--------------------------------|--------------------------------|
|--------------------------------|--------------------------------|

 |       |       |       |        |       |       |       |        
|--------------------------------|--7---5-------------------------|
|0---------0-----0---------0---0-|----------7---5-----------------|
|--------------------------------|------------------8-----7-5-5---|
|--------------------------------|--------------------------------|

 |       |       |       |        |       |       |       |        
|--------------------------------|------------------------0---2---|
|----------0---3-------0---------|--------------0-----3-----------|
|--------------------------------|--------------------------------|
|--------------------------------|--------------------------------|

 |       |       |       |        |       |       |       |        
|----------2---2---1-----0-------|------------0---0---------------|
|--------------------------------|--------------------------0-----|
|--------------------------------|--------------------3---4-------|
|--------------------------------|--------------------------------|

 |       |       |       |        |       |       |       |        
|--------------------------------|------------------------0---2---|
|----------0-----3-----0---------|----------0-----0---3-----------|
|--------------------------------|--------------------------------|
|--------------------------------|--------------------------------|

 |       |       |       |        |       |       |       |        
|------------2-2---1---0---------|------------0---0-------0-2---4-|
|--------------------------------|--------------------4-----------|
|--------------------------------|--------------------------------|
|--------------------------------|--------------------------------|

 |       |       |       |        |       |       |       |        
|------------4-4-------2---------|----------0---0-------0---2---4-|
|------------------------------5-|------------------4-------------|
|--------------------------------|--------------------------------|
|--------------------------------|--------------------------------|

 |       |       |       |        |       |       |       |        
|----------4---4-------2---------|0-----------0-0-----------------|
|--------------------------------|------------------3---2---0-----|
|--------------------------------|--------------------------------|
|--------------------------------|--------------------------------|

 |       |       |       |        |       |       |       |        
|--------------------------------|----------------------------0---|
|------------0---3-----0---------|------------0-0---2---3---------|
|--------------------------------|--------------------------------|
|--------------------------------|--------------------------------|

 |       |       |       |        |       |       |       |        
|----------0-----0-------0-------|------------0-0-----------------|
|--------------------------------|------------------3---2---0-----|
|--------------------------------|--------------------------------|
|--------------------------------|--------------------------------|

 |       |       |       |        |       |       |       |        
|--------------------------------|----------------------------0---|
|------------0-3-------0---------|----------0---0-----2-3---------|
|--------------------------------|--------------------------------|
|--------------------------------|--------------------------------|

 |       |       |       |        |       |       |       |        
|----------0---0-------0---------|------------0---0---------------|
|--------------------------------|----------------------------0---|
|--------------------------------|--------------------3---4-------|
|--------------------------------|--------------------------------|

 |       |       |       |        |       |       |       |        
|--------------------------------|--------------------------------|
|----------0---0-----------0-----|0---------0---0-----------0-----|
|--------------------------------|--------------------------------|
|--------------------------------|--------------------------------|

 |       |       |       |        |       |       |       |        
|--------------------------------|--------------------------------|
|0---------0---0-------------0---|0---------0---0-----------0-----|
|--------------------------------|--------------------------------|
|--------------------------------|--------------------------------|

 |       |       |       |        |       |       |       |        
|--------------------------------|--------------------------------|
|0-----------0---0-----------0-0-|----------0---0-------------0---|
|--------------------------------|--------------------------------|
|--------------------------------|--------------------------------|

 |       |       |       |        |       |       |       |        
|--------------------------------|--7---5-------------------------|
|0---------0-----0---------0---0-|----------7---5-----------------|
|--------------------------------|------------------8-----7---5---|
|--------------------------------|--------------------------------|

 |       |       |       |        |       |       |       |        
|--------------------------------|--------------------------------|
|----------0---0-----------0-----|0---------0---0-----------0-----|
|--------------------------------|--------------------------------|
|--------------------------------|--------------------------------|

 |       |       |       |        |       |       |       |        
|--------------------------------|--------------------------------|
|0---------0---0-------------0---|0---------0---0-----------0-----|
|--------------------------------|--------------------------------|
|--------------------------------|--------------------------------|

 |       |       |       |        
|--------------------------------|
|0-------------------------------|
|--------------------------------|
|--------------------------------|


Created with TablEdit http://www.tabledit.com/

............................................................
     
Добавлено: 04.08.2013
Вам также может быть интересно:
Другие материалы по этой песне:
  • Аккорды и текст

Страница создана 05.05.2012
http://primanota.ru/gladys-knight/i-heard-it-through-the-grapevine-chords.htm
Привет, Гость.
Предлагаем пройти революционный курс по гитаре.
Подарок от PrimaNota.Ru, забирай!