PrimaNota.ru - самый крупный в мире бесплатный архив песенных текстов, аккордов, табулатур и нот


Gladiators - The Best Things In Life - бас-таба, видео

Регистрация Запомнить меня
Войти через:  Facebook Google Twitter Vk Yandex Mail.ru

Gladiators - The Best Things In Life - бас-таба, видео

Печатать
Просмотров: 66
Уроки эстрадного вокала в Санкт-Петербурге
Intro : 

G|-5----5------4--2-4--------------5---5----4--------------| 
D|----5---5-----------5-7--5-7-------5----2---5-7----------| 
A|----------3--------------------3--------------------0----| 
E|---------------------------------------------------3-----| 



Verse : 

G|---------------------------------------------------------| 
D|----------------------------33---------------------------| 
A|-----333---------333--345555--5---------33---------------| 
E|-5555----3-4-5555----5----------3-4-5555--5 -------------| 


G|---------------------------------------------------------| 
D|-----------------------------------333-------------------| 
A|----------333---------333--3-4-5555------------33--------| 
E|--3-4-5555----3-4-5555-----------------3-4-5555--5 --3---| 


G|---------------------------------------------------------| 
D|--2-----222-----------------------333--------------------| 
A|----3333----332-----333---3-4-5555------------333--------| 
E|----------------5555----5---------------345555-----------| 


G|---------------------------------------------------------| 
D|---------222-----------------------333-------------------| 
A|-0-2-3333----332-----333---3-4-5555------------333-------| 
E|-----------------5555----5-------------3-4-5555----------| 



Chorus : 

G|---------------------------------------------------------| 
D|----------222--------------------------------------------| 
A|------3333----------------333------------333-------------| 
E|--3-5---------11-1333-5555----11-133-5555----------------| 


G|---------------------------------------------------------| 
D|---------------------------------------------------------| 
A|--------------333----------------------------------------| 
E|--11-133-35555----333-3----------------------------------| 



Verse 2 : 

G|---------------------------------------------------------| 
D|--------222-----------------------333--------------------| 
A|----3333------------333---3-4-5555--------------333------| 
E|------------3-4-5555----5---------------3-4-5555---------| 


G|---------------------------------------------------------| 
D|----------222-------------------------333----------------| 
A|------3333-----32-------333---3-4-5555--------------333--| 
E|--3-5------------3-5555----5---------------3-4-5555------| 


chorus

Instumental : 

G|---------------------------------------------------------| 
D|-----222-------------------------------------------------| 
A|-33-3----2-----------------------------------------------| 
E|-----------3-55-5555-5555--------------------------------| 


G|---------------------------------------------------------| 
D|-----222-------------------------------------------------| 
A|-33-3----22-22-------------------------------------------| 
E|---------------3-55-5-3-5--------------------------------| 


chorus 


verse 


chorus
Добавлено: 07.06.2016
Другие материалы по этой песне:
  • Аккорды и текст

Страница создана 07.06.2016
http://primanota.ru/gladiators/best-things-in-life-chords.htm
Привет, Гость.
Предлагаем пройти революционный курс по гитаре.
Подарок от PrimaNota.Ru, забирай!