PrimaNota.ru - самый крупный в мире бесплатный архив песенных текстов, аккордов, табулатур и нот


Верди Джузеппе - Marcia Trionfale - таба, видео

Регистрация Запомнить меня
Войти через:  Facebook Google Twitter Vk Yandex Mail.ru

Верди Джузеппе - Marcia Trionfale - таба, видео

Печатать
Просмотров: 59
Уроки эстрадного вокала в Санкт-Петербурге
-------------------------------------------------------------------------------
                             Marcia Trionfale - Giuseppe Verdi
-------------------------------------------------------------------------------
Tabbed by: Nicolai Schembri
E-mail: nicolai.schembri612@gmail.com

e|-----------------------------------------------------------------------------------------|
B|-----------------------------------------------------------------------------------------|
G|--------5-5-5-5-6-5-------5-5------5-5-5-5-----------------------------------------------|
D|--6--8-8---------6--8-6--8---8-6--8---8----6-8-8-----------------------------------------|
A|-6----6----------------------------------------------------------------------------------|
E|-----------------------------------------------------------------------------------------|

e|-----------------------------------------------------------------------------------------|
B|-----------------------------------------------------------------------------------------|
G|--------5-5-5-5-6-5-------5-5------5-5-5-5-5---------------------------------------------|
D|--6--8-8---------6--8-6--8---8-6--8---8---8-8-6------------------------------------------|
A|-6----6----------------------------------------------------------------------------------|
E|-----------------------------------------------------------------------------------------|

e|-----------------------------------------------------------------------------------------|
B|-----------------------------------------------------------------------------------------|
G|--------5-5-5-5-6-5-------5-5------5-5-5-5-5---------------------------------------------|
D|--6--8-8---------6--8-6--8---8-6--8---8---8-8-6------------------------------------------|
A|-6----6----------------------------------------------------------------------------------|
E|-----------------------------------------------------------------------------------------|

e|--7--9-9-11-11-11-11-12--11--9-7--9-11-11-9-7--9-11-11-9-11-11--7-9-9--------------------|
B|-7----7----------------12----------------------------------------------------------------|
G|-----------------------------------------------------------------------------------------|
D|-----------------------------------------------------------------------------------------|
A|-----------------------------------------------------------------------------------------|
E|-----------------------------------------------------------------------------------------|

e|--7--9-9-11-11-11-11-12--11--9-7--9-11-11-9-7--9-11-11-9-11-11-9-11-9-7------------------|
B|-7----7----------------12----------------------------------------------------------------|
G|-----------------------------------------------------------------------------------------|
D|-----------------------------------------------------------------------------------------|
A|-----------------------------------------------------------------------------------------|
E|-----------------------------------------------------------------------------------------|

e|---16--18--18-20-20-20-20-21-16-20-18-16--18-20-20-18-16--18-20-20--18-20-20-18-20-18-16-|
B|-16------16------------------------------------------------------------------------------|
G|-----------------------------------------------------------------------------------------|
D|-----------------------------------------------------------------------------------------|
A|-----------------------------------------------------------------------------------------|
E|-----------------------------------------------------------------------------------------|

************************************

| /   slide up
| \   slide down
| h   hammer-on
| p   pull-off
| ~   vibrato
| +   harmonic
| x   Mute note
| b   Bend
| pb  Pre-bend
| br  Bend release
| pbr Pre-bend release
| brb Bend release bend

************************************
Добавлено: 16.06.2016
Другие материалы по этой песне:
  • Аккорды и текст

Страница создана 16.06.2016
http://primanota.ru/giuseppe-verdi/marcia-trionfale-chords.htm
Привет, Гость.
Предлагаем пройти революционный курс по гитаре.
Подарок от PrimaNota.Ru, забирай!