PrimaNota.ru - самый крупный в мире бесплатный архив песенных текстов, аккордов, табулатур и нот


Giuffria - No Escape - текст песни, таба, бас-таба, видео

Регистрация Запомнить меня
Войти через:  Facebook Google Twitter Vk Yandex Mail.ru

Giuffria - No Escape - текст песни, таба, бас-таба, видео

Печатать
Просмотров: 167
-----------------------------------------------------------------------------
                  No Escape - Giuffria    (GUITAR)
                       
-----------------------------------------------------------------------------
Tabbed by: Scotto10

Tuning: Standard

Info on the 
band:http://www.allmusic.com/artist/giuffria-p17874

=============================================================================

Guitar - rhythm

          S S S S E  E  S S S S E  E     S S S S S S Q    Q.       
-------|------------------------------|---------------------------|
-------|------------------------------|---------------------------|
-------|------------------------------|---------------------------|
-------|--9-9-9-9-9-----9-9-9-9-9-----|--9-9-9-9-9-9-9------------|
-------|--7-7-7-7-7-----7-7-7-7-7-----|--7-7-7-7-7-7-7----L\------|
-------|------------------------------|---------------------------|


  W                   W                   W                   W                 
-------------------|-------------------|-------------------|-------------------|
-------------------|-------------------|-------------------|-------------------|
-------------------|-------------------|-------------------|-------------------|
--2----------------|--L----------------|-------------------|-------------------|
--0----------------|--L----------------|-------------------|-------------------|
-------------------|-------------------|--0----------------|--L----------------|


-------|-------|-------|-------|-------|-------|-------|-------|-------|
-------|-------|-------|-------|-------|-------|-------|-------|-------|
-------|-------|-------|-------|-------|-------|-------|-------|-------|
-------|-------|-------|-------|-------|-------|-------|-------|-------|
-------|-------|-------|-------|-------|-------|-------|-------|-------|
-------|-------|-------|-------|-------|-------|-------|-------|-------|


  H.            Q                                                              
---------------12\----|-------|-------|-------|-------|-------|-------|-------|
---------------12\----|-------|-------|-------|-------|-------|-------|-------|
----------------------|-------|-------|-------|-------|-------|-------|-------|
----------------------|-------|-------|-------|-------|-------|-------|-------|
----------------------|-------|-------|-------|-------|-------|-------|-------|
----------------------|-------|-------|-------|-------|-------|-------|-------|


                  S S S S S E  S S S S S Q       Q    E  E  E  E  E  E   
-------|-------|------------------------------|-------------------------|
-------|-------|------------------------------|--8----7--8--------8-----|
-------|-------|------------------------------|--9----7--9--------9-----|
-------|-------|--5-5-5-5-5----5-5-5-5-5------|--9----7--9--------9-----|
-------|-------|--3-3-3-3-3----3-3-3-3-3------|-------------------------|
-------|-------|------------------------------|-------------------------|


  E  Q    Q.     Q       Q    E  E  E  E  E  E     E  Q    Q.     Q     
----------------------|-------------------------|----------------------|
--7-------8------7----|--8----7--8--------8-----|--7-------8------7----|
--7-------9------7----|--9----7--9--------9-----|--7-------9------7----|
--7-------9------7----|--9----7--9--------9-----|--7-------9------7----|
----------------------|-------------------------|----------------------|
----------------------|-------------------------|----------------------|


  Q    E  E  E  E  E  E     E  Q    Q.     Q       W                 
-------------------------|----------------------|-------------------|
--8----7--8--------8-----|--7-------8------7----|-------------------|
--9----7--9--------9-----|--7-------9------7----|-------------------|
--9----7--9--------9-----|--7-------9------7----|--3----------------|
-------------------------|----------------------|--3----------------|
-------------------------|----------------------|--1----------------|


  W                                                                         
-------------------|-------|-------|-------|-------|-------|-------|-------|
-------------------|-------|-------|-------|-------|-------|-------|-------|
-------------------|-------|-------|-------|-------|-------|-------|-------|
--5----------------|-------|-------|-------|-------|-------|-------|-------|
--5----------------|-------|-------|-------|-------|-------|-------|-------|
--3----------------|-------|-------|-------|-------|-------|-------|-------|


  H.            Q                                                              
---------------12\----|-------|-------|-------|-------|-------|-------|-------|
---------------12\----|-------|-------|-------|-------|-------|-------|-------|
----------------------|-------|-------|-------|-------|-------|-------|-------|
----------------------|-------|-------|-------|-------|-------|-------|-------|
----------------------|-------|-------|-------|-------|-------|-------|-------|
----------------------|-------|-------|-------|-------|-------|-------|-------|


          Q    E  E  E  E  E  E     E  Q    Q.     Q     
-------|-------------------------|----------------------|
-------|--8----7--8--------8-----|--7-------8------7----|
-------|--9----7--9--------9-----|--7-------9------7----|
-------|--9----7--9--------9-----|--7-------9------7----|
-------|-------------------------|----------------------|
-------|-------------------------|----------------------|


  Q    E  E  E  E  E  E     E  Q    Q.     Q       Q    E  E  E  E  E  E   
-------------------------|----------------------|-------------------------|
--8----7--8--------8-----|--7-------8------7----|--8----7--8--------8-----|
--9----7--9--------9-----|--7-------9------7----|--9----7--9--------9-----|
--9----7--9--------9-----|--7-------9------7----|--9----7--9--------9-----|
-------------------------|----------------------|-------------------------|
-------------------------|----------------------|-------------------------|


  E  Q    Q.     Q       W                   W                 
----------------------|-------------------|-------------------|
--7-------8------7----|-------------------|-------------------|
--7-------9------7----|-------------------|-------------------|
--7-------9------7----|--3----------------|--5----------------|
----------------------|--3----------------|--5----------------|
----------------------|--1----------------|--3----------------|


  Q    E  E  E  E  E  E     E  Q    Q.     Q       Q    E  E  E  E  E  E   
-------------------------|----------------------|-------------------------|
--8----7--8--------8-----|--7-------8------7----|--8----7--8--------8-----|
--9----7--9--------9-----|--7-------9------7----|--9----7--9--------9-----|
--9----7--9--------9-----|--7-------9------7----|--9----7--9--------9-----|
-------------------------|----------------------|-------------------------|
-------------------------|----------------------|-------------------------|


  E  Q    Q.     Q       Q    E  E  E  E  E  E     E  Q    Q.     Q     
----------------------|-------------------------|----------------------|
--7-------8------7----|--8----7--8--------8-----|--7-------8------7----|
--7-------9------7----|--9----7--9--------9-----|--7-------9------7----|
--7-------9------7----|--9----7--9--------9-----|--7-------9------7----|
----------------------|-------------------------|----------------------|
----------------------|-------------------------|----------------------|


  W                   W                   W                   W                 
-------------------|-------------------|-------------------|-------------------|
-------------------|-------------------|-------------------|-------------------|
-------------------|-------------------|-------------------|-------------------|
--3----------------|--5----------------|-------------------|-------------------|
--3----------------|--5----------------|--2----------------|--L----------------|
--1----------------|--3----------------|--0----------------|--L----------------|


  W                                                                             
-------------------|-------------------|-------------------|-------------------|
-------------------|-------------------|-------------------|-------------------|
-------------------|-------------------|-------------------|-------------------|
-------------------|-------------------|-------------------|-------------------|
--2----------------|-------------------|-------------------|-------------------|
--0----------------|-------------------|-------------------|-------------------|


-------------------|-------------------|-------------------|-------------------|
-------------------|-------------------|-------------------|-------------------|
-------------------|-------------------|-------------------|-------------------|
-------------------|-------------------|-------------------|-------------------|
-------------------|-------------------|-------------------|-------------------|
-------------------|-------------------|-------------------|-------------------|


  W                   W                   W                 
-------------------|-------------------|-------------------|
-------------------|-------------------|-------------------|
-------------------|-------------------|-------------------|
-------------------|-------------------|--5----------------|
-------------------|-------------------|--3----------------|
--0----------------|--L----------------|-------------------|


  H        Q    Q       W                   W                 
---------------------|-------------------|-------------------|
---------------------|-------------------|-------------------|
---------------------|-------------------|-------------------|
--L--------5----4----|--2----------------|--L----------------|
--L--------3----2----|--0----------------|--L----------------|
---------------------|-------------------|-------------------|


  W                   W                                                         
-------------------|-------------------|-------------------|-------------------|
-------------------|-------------------|-------------------|-------------------|
-------------------|-------------------|-------------------|-------------------|
-------------------|-------------------|-------------------|-------------------|
--3----------------|--L----------------|-------------------|-------------------|
--1----------------|--L----------------|-------------------|-------------------|


-------------------|-------------------|-------------------|-------------------|
-------------------|-------------------|-------------------|-------------------|
-------------------|-------------------|-------------------|-------------------|
-------------------|-------------------|-------------------|-------------------|
-------------------|-------------------|-------------------|-------------------|
-------------------|-------------------|-------------------|-------------------|


                                          Q    E  E  E  E  E  E   
-------------------|-------------------|-------------------------|
-------------------|-------------------|--8----7--8--------8-----|
-------------------|-------------------|--9----7--9--------9-----|
-------------------|-------------------|--9----7--9--------9-----|
-------------------|-------------------|-------------------------|
-------------------|-------------------|-------------------------|


  E  Q    Q.     Q       Q    E  E  E  E  E  E     E  Q    Q.     Q     
----------------------|-------------------------|----------------------|
--7-------8------7----|--8----7--8--------8-----|--7-------8------7----|
--7-------9------7----|--9----7--9--------9-----|--7-------9------7----|
--7-------9------7----|--9----7--9--------9-----|--7-------9------7----|
----------------------|-------------------------|----------------------|
----------------------|-------------------------|----------------------|


  Q    E  E  E  E  E  E     E  Q    Q.     Q       W                 
-------------------------|----------------------|-------------------|
--8----7--8--------8-----|--7-------8------7----|-------------------|
--9----7--9--------9-----|--7-------9------7----|-------------------|
--9----7--9--------9-----|--7-------9------7----|--3----------------|
-------------------------|----------------------|--3----------------|
-------------------------|----------------------|--1----------------|


  W                                                                             
-------------------|-------------------|-------------------|-------------------|
-------------------|-------------------|-------------------|-------------------|
-------------------|-------------------|-------------------|-------------------|
--5----------------|-------------------|-------------------|-------------------|
--5----------------|-------------------|-------------------|-------------------|
--3----------------|-------------------|-------------------|-------------------|


-------------------|-------------------|-------------------|-------------------|
-------------------|-------------------|-------------------|-------------------|
-------------------|-------------------|-------------------|-------------------|
-------------------|-------------------|-------------------|-------------------|
-------------------|-------------------|-------------------|-------------------|
-------------------|-------------------|-------------------|-------------------|


                      Q    E  E  E  E  E  E     E  Q    Q.     Q     
-------------------|-------------------------|----------------------|
-------------------|--8----7--8--------8-----|--7-------8------7----|
-------------------|--9----7--9--------9-----|--7-------9------7----|
-------------------|--9----7--9--------9-----|--7-------9------7----|
-------------------|-------------------------|----------------------|
-------------------|-------------------------|----------------------|


  Q    E  E  E  E  E  E     E  Q    Q.     Q       Q    E  E  E  E  E  E   
-------------------------|----------------------|-------------------------|
--8----7--8--------8-----|--7-------8------7----|--8----7--8--------8-----|
--9----7--9--------9-----|--7-------9------7----|--9----7--9--------9-----|
--9----7--9--------9-----|--7-------9------7----|--9----7--9--------9-----|
-------------------------|----------------------|-------------------------|
-------------------------|----------------------|-------------------------|


  E  Q    Q.     Q       W                   W                 
----------------------|-------------------|-------------------|
--7-------8------7----|-------------------|-------------------|
--7-------9------7----|-------------------|-------------------|
--7-------9------7----|--3----------------|--5----------------|
----------------------|--3----------------|--5----------------|
----------------------|--1----------------|--3----------------|


  Q    E  E  E  E  E  E     E  Q    Q.     Q       Q    E  E  E  E  E  E   
-------------------------|----------------------|-------------------------|
--8----7--8--------8-----|--7-------8------7----|--8----7--8--------8-----|
--9----7--9--------9-----|--7-------9------7----|--9----7--9--------9-----|
--9----7--9--------9-----|--7-------9------7----|--9----7--9--------9-----|
-------------------------|----------------------|-------------------------|
-------------------------|----------------------|-------------------------|


  E  Q    Q.     Q       Q    E  E  E  E  E  E     E  Q    Q.     Q     
----------------------|-------------------------|----------------------|
--7-------8------7----|--8----7--8--------8-----|--7-------8------7----|
--7-------9------7----|--9----7--9--------9-----|--7-------9------7----|
--7-------9------7----|--9----7--9--------9-----|--7-------9------7----|
----------------------|-------------------------|----------------------|
----------------------|-------------------------|----------------------|


  W                   W                   W                   W                 
-------------------|-------------------|-------------------|-------------------|
-------------------|-------------------|-------------------|-------------------|
-------------------|-------------------|-------------------|-------------------|
--3----------------|--L----------------|--5----------------|--L----------------|
--3----------------|--L----------------|--5----------------|--L----------------|
--1----------------|--L----------------|--3----------------|--L----------------|


  W                   W                   S S S S E  E  S S S S E  E   
-------------------|-------------------|------------------------------|
-------------------|-------------------|------------------------------|
-------------------|-------------------|--9-9-9-9-9-----9-9-9-9-9-----|
--2----------------|--L----------------|--9-9-9-9-9-----9-9-9-9-9-----|
--2----------------|--L----------------|--7-7-7-7-7-----7-7-7-7-7-----|
--0----------------|--L----------------|------------------------------|


  S S S S S S H        E                                            
--------------------------|-------------------|-------------------||
--------------------------|-------------------|-------------------||
--9-9-9-9-9-9-------------|-------------------|-------------------||
--9-9-9-9-9-9-------------|-------------------|-------------------||
--7-7-7-7-7-7-------------|-------------------|-------------------||
--------------------------|-------------------|-------------------||




=======================================================================
=======================================================================


Guitar - lead



                                                     NH   NH   NH   NH  
                                          H          E    E    E    E   
-------|-------|-------|-------|-------|-------------------------------|
-------|-------|-------|-------|-------|-----------<>7-----------------|
-------|-------|-------|-------|-------|----------------<>7------------|
-------|-------|-------|-------|-------|---------------------<>7-------|
-------|-------|-------|-------|-------|--------------------------<>7--|
-------|-------|-------|-------|-------|-------------------------------|


    NH                                                                        
    W                                                                         
---------------------|-------|-------|-------|-------|-------|-------|-------|
---------------------|-------|-------|-------|-------|-------|-------|-------|
---------------------|-------|-------|-------|-------|-------|-------|-------|
---------------------|-------|-------|-------|-------|-------|-------|-------|
---------------------|-------|-------|-------|-------|-------|-------|-------|
--<>7----------------|-------|-------|-------|-------|-------|-------|-------|


                  H.            Q                                              
-------|-------|---------------12\----|-------|-------|-------|-------|-------|
-------|-------|---------------12\----|-------|-------|-------|-------|-------|
-------|-------|----------------------|-------|-------|-------|-------|-------|
-------|-------|----------------------|-------|-------|-------|-------|-------|
-------|-------|----------------------|-------|-------|-------|-------|-------|
-------|-------|----------------------|-------|-------|-------|-------|-------|



  H.            Q                                                              
---------------12\----|-------|-------|-------|-------|-------|-------|-------|
---------------12\----|-------|-------|-------|-------|-------|-------|-------|
----------------------|-------|-------|-------|-------|-------|-------|-------|
----------------------|-------|-------|-------|-------|-------|-------|-------|
----------------------|-------|-------|-------|-------|-------|-------|-------|
----------------------|-------|-------|-------|-------|-------|-------|-------|



                                           Q     E   Q.      E   E   
-------|-------|-------|-------|-------|----------------------------|
-------|-------|-------|-------|-------|----------------------------|
-------|-------|-------|-------|-------|--16----14--14--------------|
-------|-------|-------|-------|-------|--------------------17--17--|
-------|-------|-------|-------|-------|----------------------------|
-------|-------|-------|-------|-------|----------------------------|


   Q     E   Q     Q     E      Q     E   Q.      E   E   
----------------------------|----------------------------|
----------------------------|----------------------------|
------------------------14--|--16----14--14--------------|
---L----16--16----17--------|--------------------17--17--|
----------------------------|----------------------------|
----------------------------|----------------------------|


   Q     E   Q     Q     E      Q     E   Q.      E   E   
----------------------------|----------------------------|
----------------------------|----------------------------|
------------------------14--|--16----14--14--------------|
---L----16--16----17--------|--------------------17--17--|
----------------------------|----------------------------|
----------------------------|----------------------------|


   Q     E   Q     Q     E   
----------------------------|
----------------------------|
------------------------14--|
---L----16--16----17--------|
----------------------------|
----------------------------|


   E      E      E      E      E      E      E      E   
-------------------------------------------------------|
-------------------------------------------------------|
--16--13g14--------------------------------------------|
-------------14g15-------------------------------------|
--------------------14g15--11g12---------11g12--14g15--|
----------------------------------12g13----------------|


      E      E      E      E    H         
------------------------------/17--------|
----------------12g13--17g18-------------|
---------13g14---------------------------|
--14g15----------------------------------|
-----------------------------------------|
-----------------------------------------|


   Q      Q     S   S   S  S  S  S  S  S     S  S  S  S  S S  E    Q     Q      
-----------------------------------------|-------------------------------------|
--20b----20----17h-20p-17----17----------|-------------------------------------|
--------------------------19----19-16----|--16---------------------------2s----|
--------------------------------------20-|-----19-17----19-x-17s--16~----------|
-----------------------------------------|-----------19------------------------|
-----------------------------------------|-------------------------------------|


   |---3---|   |---3---|  |--3--|  |--3-|  |--3-|  |--3-|  |--3-|  |--3-|   
   S   S   S   S   S   S  S  S  S  S S  S  S S  S  S S  S  S S  S  S S  S   
---------------------------------------------------------------------------|
---------------------------------------------------------------------------|
--12h-14p-12s-11h-12p-11s-9-11p-9s-7-9p-7s-5-7p-5s-4-5p-4s-2-4p-2p-0-4p-2h-|
---------------------------------------------------------------------------|
---------------------------------------------------------------------------|
---------------------------------------------------------------------------|


            slide up while abusing the whammy          
            \1/                                \1/     
  |--3-|    3                                          
  S S  S  S H.                                 Q    S  
------------------------------------------------------|
------------------------------------------------------|
--0-4p-2p-0-3---------------------------------17------|
------------------------------------------------------|
------------------------------------------------------|
------------------------------------------------------|


   |--6--|  |--6--|  6  6     |--6--|  |--6--|  6                 
   S  S  S  S  S  S  S  S  S  S  S  S  S  S  S  S  S  S  S  S  S  
-----------------------------------------------------------------|
-----------------------------------------------------14-15-17-15-|
--------------------------------------14-16-17-16-17-------------|
-----------------------------14-16-17----------------------------|
--------------------14-15-17-------------------------------------|
--12-14-15-14-15-17----------------------------------------------|


   |--6--|  |--6--|           6     6     6              
   S  S  S  S  S  S  S  S  S  S  S  S  S  S  S  S E   S  
--------15-17-19-20-22-21-20-19-18----------------------|
--17-19----------------------------20-17-16-------------|
--------------------------------------------19-18-------|
-----------------------------------------------------15-|
--------------------------------------------------------|
--------------------------------------------------------|


      E.   S     E.   S     E.      S  S  S      E   
-------------------------xg13----xg13-17--L\--------|
--------------xg13---13-----------------------------|
---xg14---14----------------------------------------|
----------------------------------------------xg17--|
----------------------------------------------------|
----------------------------------------------------|


      E.      S     E.      S     E.   S  E    E   
-------------------------------xg15---15-19s--22--|
-----------------xg15----xg15---------------------|
---xg16----xg16-----------------------------------|
--------------------------------------------------|
--------------------------------------------------|
--------------------------------------------------|


   Q      E   Q.      E   E      Q       E   E  E   Q     E   
--22b------------------------|---Lpb-------------------------|
-----------------------------|-------------------------------|
--16-----14--14--------------|---------------------------14--|
---------------------17--17--|---L------16--16-----17--------|
-----------------------------|-------------------------------|
-----------------------------|-------------------------------|


   Q     E   Q.      E   E      Q     E   Q     Q     E   
----------------------------|----------------------------|
----------------------------|----------------------------|
--16----14--14--------------|------------------------14--|
--------------------17--17--|---L----16--16----17--------|
----------------------------|----------------------------|
----------------------------|----------------------------|


   Q     E   Q.      E   E      Q     E   Q     Q     E      W                 
----------------------------|----------------------------|--------------------|
----------------------------|----------------------------|--------------------|
--16----14--14--------------|------------------------14--|--------------------|
--------------------17--17--|---L----16--16----17--------|--15----------------|
----------------------------|----------------------------|--------------------|
----------------------------|----------------------------|--------------------|


                                                        H        E   E  E  E   
-----|-----|-----|-----|-----|-----|-----|-----|-----|------------------------|
-----|-----|-----|-----|-----|-----|-----|-----|-----|------------------------|
-----|-----|-----|-----|-----|-----|-----|-----|-----|------------------------|
-----|-----|-----|-----|-----|-----|-----|-----|-----|--2--------2s--4--5--7--|
-----|-----|-----|-----|-----|-----|-----|-----|-----|------------------------|
-----|-----|-----|-----|-----|-----|-----|-----|-----|------------------------|


  Q     Q.     S S S S S S    H        E   E   E   E   
---------------------------|--------------------------|
---------------------------|----------------------10--|
---------------------------|--9--------9--11--12------|
--9b-----------x-x-x-x-x-x-|--------------------------|
--------7------------------|--------------------------|
---------------------------|--------------------------|


   Q       Q.     S S S S S S     H         E   E   E   E   
------------------------------|----------------------------|
--10pbr-----------------------|--17--------17--19--20--22--|
-----------9------------------|----------------------------|
------------------x-x-x-x-x-x-|----------------------------|
------------------------------|----------------------------|
------------------------------|----------------------------|


   Q        H.              E  E   E  E   E   E         
-------------------------|-----------------------|-----|
--22pbr------------------|-----------------------|-----|
-----------21------------|-------------------10--|-----|
-------------------------|------------3s--7------|-----|
-------------------------|-----3s--8-------------|-----|
-------------------------|--1--------------------|-----|


                                                      \1/                     
  E  E   E   Q     Q      Q     Q                     W                       
-------------------------------15----|-----|-----|---------------------|-----|
------------------10s----12----------|-----|-----|---------------------|-----|
------------12-----------------------|-----|-----|--<>5----------------|-----|
-----5s--9---------------------------|-----|-----|---------------------|-----|
-------------------------------------|-----|-----|---------------------|-----|
--3----------------------------------|-----|-----|---------------------|-----|


-----|-----|-----||
-----|-----|-----||
-----|-----|-----||
-----|-----|-----||
-----|-----|-----||
-----|-----|-----||




Duration Legend
---------------
W - whole
H - half
Q - quarter
E - 8th
S - 16th
T - 32nd
X - 64th
. - note dotted
|-n-|  - n-tuplets


Tablature Legend
----------------
L - tied note
x - dead note
g - grace note
(n) - ghost note
> - accentuded note
NH - natural harmonic
AH - artificial harmonic
TH - tapped harmonic
SH - semi harmonic
PH - pitch harmonic
h - hammer on
p - pull off
b - bend
br - bendRelease
pb - preBend
pbr - preBendRelease
brb - bendReleaseBend
\n/ - tremolo bar dip
\n - tremolo bar dive
-/n - tremolo bar Release up
/n\ - tremolo bar inverted dip
/n - tremolo bar return
-\n - tremolo bar Release down
S - shift slide
s - legato slide
/ -  slide into from below or out of upwards
\ -  slide into from above or out of downwards
~ - vibrato
W - wide vibrato
tr - trill
TP - tremolo picking
T - tapping
S - slap
P - pop
< - fade in
^ - brush up
v - brush down
Добавлено: 21.05.2012
Вам также может быть интересно:
Другие материалы по этой песне:

Страница создана 27.03.2012
http://primanota.ru/giuffria/no-escape-chords.htm
Привет, Гость.
Предлагаем пройти революционный курс по гитаре.
Подарок от PrimaNota.Ru, забирай!