PrimaNota.ru - самый крупный в мире бесплатный архив песенных текстов, аккордов, табулатур и нот


Giuffria - I Must Be Dreaming - текст песни, таба, бас-таба, видео

Регистрация Запомнить меня
Войти через:  Facebook Google Twitter Vk Yandex Mail.ru

Giuffria - I Must Be Dreaming - текст песни, таба, бас-таба, видео

Печатать
Просмотров: 144
Уроки эстрадного вокала в Санкт-Петербурге
-----------------------------------------------------------------------------
                  I Must Be Dreaming - Giuffria    (GUITAR)

-----------------------------------------------------------------------------
Tabbed by: Scotto10

Tuning: Standard

=============================================================================



Guitar 1



     W                   W                   W
E||-------------------|-------------------|-------------------|
B||-------------------|-------------------|-------------------|
G||-------------------|-------------------|-------------------|
D||-------------------|-------------------|-------------------|
A||-------------------|-------------------|-------------------|
E||-------------------|-------------------|-------------------|


  W                   W                   W                   W
-------------------|-------------------|-------------------|-------------------|
-------------------|-------------------|-------------------|-------------------|
-------------------|-------------------|-------------------|-------------------|
-------------------|-------------------|-------------------|-------------------|
-------------------|-------------------|-------------------|-------------------|
-------------------|-------------------|-------------------|-------------------|


  W                   W                   W                   W
-------------------|-------------------|-------------------|-------------------|
-------------------|-------------------|-------------------|-------------------|
-------------------|-------------------|-------------------|-------------------|
-------------------|-------------------|-------------------|-------------------|
-------------------|-------------------|-------------------|-------------------|
-------------------|-------------------|-------------------|-------------------|


  W                   W                   W                   W
-------------------|-------------------|-------------------|-------------------|
-------------------|-------------------|-------------------|-------------------|
-------------------|-------------------|-------------------|-------------------|
-------------------|-------------------|-------------------|-------------------|
-------------------|-------------------|-------------------|-------------------|
-------------------|-------------------|-------------------|-------------------|


  W                   W                   W                   W
-------------------|-------------------|-------------------|-------------------|
-------------------|-------------------|-------------------|-------------------|
-------------------|-------------------|-------------------|-------------------|
-------------------|-------------------|-------------------|-------------------|
-------------------|-------------------|-------------------|-------------------|
-------------------|-------------------|-------------------|-------------------|


  W                   E  Q    E  Q    E  E     E  E  Q    E  E  E  E
-------------------|------------------------|-------------------------|
--3----------------|------------------------|-------------------------|
--2----------------|--4-------4-------4-----|-----4-------4--4--4--4--|
--0----------------|--5-------5-------5-----|-----5-------5--5--5--5--|
--0----------------|--5-------5-------5-----|-----5-------5--5--5--5--|
-------------------|--3-------3-------3-----|-----3-------3--3--3--3--|


  E  Q    E  Q    E  E     E  E  Q    E  E  E  E     E  Q    E  Q    E  E
------------------------|-------------------------|------------------------|
------------------------|-------------------------|------------------------|
--4-------4-------4-----|-----4-------4--4--4--4--|--5-------5-------5-----|
--5-------5-------5-----|-----5-------5--5--5--5--|--5-------5-------5-----|
--5-------5-------5-----|-----5-------5--5--5--5--|--3-------3-------3-----|
--3-------3-------3-----|-----3-------3--3--3--3--|------------------------|


  E  E  Q    E  E  E  E     E  Q    E  Q    E  E     E  E  Q    E  E  E  E
-------------------------|------------------------|-------------------------|
-------------------------|------------------------|-------------------------|
-----5-------5--5--5--5--|--4-------4-------4-----|-----4-------4--4--4--4--|
-----5-------5--5--5--5--|--5-------5-------5-----|-----5-------5--5--5--5--|
-----3-------3--3--3--3--|--5-------5-------5-----|-----5-------5--5--5--5--|
-------------------------|--3-------3-------3-----|-----3-------3--3--3--3--|


  E  Q    E  Q    E  E     E  E  Q    E  E  E  E     E  Q    E  Q    E  E
------------------------|-------------------------|------------------------|
------------------------|-------------------------|------------------------|
--5-------5-------5-----|-----5-------5--5--5--5--|--4-------4-------4-----|
--5-------5-------5-----|-----5-------5--5--5--5--|--5-------5-------5-----|
--3-------3-------3-----|-----3-------3--3--3--3--|--5-------5-------5-----|
------------------------|-------------------------|--3-------3-------3-----|


  E  E  Q    E  E  E  E     W                   W
-------------------------|-------------------|-------------------|
-------------------------|-------------------|--3----------------|
-----4-------4--4--4--4--|--4----------------|--2----------------|
-----5-------5--5--5--5--|--5----------------|--0----------------|
-----5-------5--5--5--5--|--5----------------|--0----------------|
-----3-------3--3--3--3--|--3----------------|-------------------|


                                                     ^
  E  Q    E  Q    E  E     E  E  Q    E  E  E  E     W
------------------------|-------------------------|-------------------|
------------------------|-------------------------|--5----------------|
--4-------4-------4-----|-----4-------4--4--4--4--|--5----------------|
--5-------5-------5-----|-----5-------5--5--5--5--|--5----------------|
--5-------5-------5-----|-----5-------5--5--5--5--|--3----------------|
--3-------3-------3-----|-----3-------3--3--3--3--|-------------------|


                       ^
   W                   W
--------------------|-------------------|
---L----------------|--3----------------|
---L----------------|--4----------------|
---L----------------|--5----------------|
---L----------------|--5----------------|
--------------------|--3----------------|


              NH   NH   NH  NH  NH  NH  NH  NH       ^
  Q      S    S    S    S   S   S   S   S   S E.     W
--------------------------------------------------|-------------------|
----------------<>12-<>12-------------------------|--5----------------|
--------12-<>12-----------<>7-<>7-<>5-<>5-<>9-----|--5----------------|
--------------------------------------------------|--5----------------|
--5/----------------------------------------------|--3----------------|
--------------------------------------------------|-------------------|


   W                   Q.     Q.     Q        H.           Q
--------------------|---------------------|---------------------|
---L----------------|---------------------|---------------------|
---L----------------|--7------5------7----|---L-----------------|
---L----------------|--7------5------7----|---L-----------------|
---L----------------|--5------3------5----|---L-----------------|
--------------------|---------------------|---------------------|


  PM PM PM PM PM PM PM PM    PM PM PM PM PM PM PM PM
  E  E  E  E  E  E  E  E     E  E  E  E  E  E  E  E
--------------------------|--------------------------|
--------------------------|--------------------------|
--------------------------|--------------------------|
--------------------------|--------------------------|
--5--5--5--5--5--5--5--5--|--5--5--5--5--5--5--5--5--|
--3--3--3--3--3--3--3--3--|--3--3--3--3--3--3--3--3--|


  PM PM PM PM PM PM PM PM    PM PM PM PM PM PM PM PM    ^               ^
  E  E  E  E  E  E  E  E     E  E  E  E  E  E  E  E     H.           E  E
--------------------------|--------------------------|---------------------|
--------------------------|--------------------------|--0------------L--1--|
--------------------------|--------------------------|--0------------L--2--|
--------------------------|--------------------------|--2------------L--3--|
--5--5--5--5--5--5--5--5--|--5--5--5--5--5--5--5--5--|--2------------L--3--|
--3--3--3--3--3--3--3--3--|--3--3--3--3--3--3--3--3--|--0---------------1--|


  W                   E  Q    E  Q    E  E     E  E  Q    E  E  E  E
--L----------------|------------------------|-------------------------|
--L----------------|------------------------|-------------------------|
--L----------------|--4-------4-------4-----|-----4-------4--4--4--4--|
--L----------------|--5-------5-------5-----|-----5-------5--5--5--5--|
--L----------------|--5-------5-------5-----|-----5-------5--5--5--5--|
--L----------------|--3-------3-------3-----|-----3-------3--3--3--3--|


  E  Q    E  Q    E  E     E  E  Q    E  E  E  E     E  Q    E  Q    E  E
------------------------|-------------------------|------------------------|
------------------------|-------------------------|------------------------|
--4-------4-------4-----|-----4-------4--4--4--4--|--5-------5-------5-----|
--5-------5-------5-----|-----5-------5--5--5--5--|--5-------5-------5-----|
--5-------5-------5-----|-----5-------5--5--5--5--|--3-------3-------3-----|
--3-------3-------3-----|-----3-------3--3--3--3--|------------------------|


  E  E  Q    E  E  E  E     E  Q    E  Q    E  E     E  E  Q    E  E  E  E
-------------------------|------------------------|-------------------------|
-------------------------|------------------------|-------------------------|
-----5-------5--5--5--5--|--4-------4-------4-----|-----4-------4--4--4--4--|
-----5-------5--5--5--5--|--5-------5-------5-----|-----5-------5--5--5--5--|
-----3-------3--3--3--3--|--5-------5-------5-----|-----5-------5--5--5--5--|
-------------------------|--3-------3-------3-----|-----3-------3--3--3--3--|


  W                   W                   E  Q    E  Q    E  E
-------------------|-------------------|------------------------|
-------------------|--3----------------|------------------------|
--4----------------|--2----------------|--4-------4-------4-----|
--5----------------|--0----------------|--5-------5-------5-----|
--5----------------|--0----------------|--5-------5-------5-----|
--3----------------|-------------------|--3-------3-------3-----|


                            ^
  E  E  Q    E  E  E  E     W                    W
-------------------------|-------------------|--------------------|
-------------------------|--5----------------|---L----------------|
-----4-------4--4--4--4--|--5----------------|---L----------------|
-----5-------5--5--5--5--|--5----------------|---L----------------|
-----5-------5--5--5--5--|--3----------------|---L----------------|
-----3-------3--3--3--3--|-------------------|--------------------|


  ^                              NH  NH          ^
  W                   H          S   Q.     S    W
-------------------|--------------------------|-------------------|
--3----------------|--L-----------------------|--5----------------|
--4----------------|--L--------<>7-<>5--------|--5----------------|
--5----------------|--L-----------------------|--5----------------|
--5----------------|--L-----------------------|--3----------------|
--3----------------|--L-----------------------|-------------------|


   W                   Q.     Q.     Q        H.           Q
--------------------|---------------------|---------------------|
---L----------------|---------------------|---------------------|
---L----------------|--7------5------7----|---L-----------------|
---L----------------|--7------5------7----|---L-----------------|
---L----------------|--5------3------5----|---L-----------------|
--------------------|---------------------|---------------------|


  E  E  E  E  E  E  E  E     E  E  E  E  E  E  E  E
--------------------------|--------------------------|
--------------------------|--------------------------|
--------------------------|--------------------------|
--------------------------|--------------------------|
--------------------------|--------------------------|
--3--3--3--3--3--3--3--3--|--3--3--3--3--3--3--3--3--|


  E  E  E  E  E  E  E  E     E  E  E  E  E  E  E  E     W
--------------------------|--------------------------|-------------------|
--------------------------|--------------------------|--0----------------|
--------------------------|--------------------------|--0----------------|
--------------------------|--------------------------|--2----------------|
--------------------------|--------------------------|--2----------------|
--3--3--3--3--3--3--3--3--|--3--3--3--3--3--3--3--3--|--0----------------|


  W                   W                   H        H
-------------------|-------------------|---------------------|
--1----------------|-------------------|-----------2s--------|
--2----------------|--0----------------|--L------------------|
--3----------------|--0----------------|--L------------------|
--3----------------|-------------------|---------------------|
--1----------------|--3----------------|--L------------------|


                                                          \1/            \1/
   Q.      Q.      E   E      Q.      Q     E   E   E     H.             Q
--------------------------|----------------------------|----------------------|
--15------13------12--13--|--15------13----12----------|---------------<>5----|
--------------------------|--------------------14--12--|--0-------------------|
--------------------------|----------------------------|----------------------|
--------------------------|----------------------------|----------------------|
--------------------------|----------------------------|----------------------|


    \1/
    H.            E   E      Q.      Q.      E   E
-------------------------|--------------------------|
--<>L------------12--13--|--15------13------12--13--|
-------------------------|--------------------------|
-------------------------|--------------------------|
-------------------------|--------------------------|
-------------------------|--------------------------|


   Q.      Q     E  E    E
----------------------------|
--15------13----12----------|
----------------------------|
----------------------------|
--------------------5s--12--|
--------------------5s--12--|


   |--3--|  |--3--|  |--3--|  |--3--|  |--3--|  |--3--|  |--3--|
   S  S  S  S  S  S  S  S  S  S  S  S  S  S  S  S  S  S  S  S  S  S  S
-----------------------------------------------------------------19-20-|
-----------------------------------------------17-19-20-17-19-20-------|
--------------------16-17-19----------16-17-19-------------------------|
-----------16-17-19----------16-17-19----------------------------------|
--16-17-19-------------------------------------------------------------|
-----------------------------------------------------------------------|


   S  H.            E.      W                   W
--21-22-------------L---|---L----------------|-------------------|
------------------------|--------------------|-------------------|
------------------------|--------------------|-------------------|
------------------------|--------------------|-------------------|
------------------------|--------------------|-------------------|
------------------------|--------------------|-------------------|


  W                   W                   W                   W
-------------------|-------------------|-------------------|-------------------|
-------------------|-------------------|-------------------|-------------------|
-------------------|-------------------|-------------------|-------------------|
-------------------|-------------------|-------------------|-------------------|
-------------------|-------------------|-------------------|-------------------|
-------------------|-------------------|-------------------|-------------------|


  W                   W                   W
-------------------|-------------------|-------------------|
-------------------|-------------------|-------------------|
-------------------|-------------------|-------------------|
-------------------|-------------------|-------------------|
-------------------|-------------------|-------------------|
-------------------|-------------------|-------------------|


  E  Q    E  Q    E  E     E  E  Q    E  E  E  E     E  Q    E  Q    E  E
------------------------|-------------------------|------------------------|
------------------------|-------------------------|------------------------|
--5-------5-------5-----|-----5-------5--5--5--5--|--4-------4-------4-----|
--5-------5-------5-----|-----5-------5--5--5--5--|--5-------5-------5-----|
--3-------3-------3-----|-----3-------3--3--3--3--|--5-------5-------5-----|
------------------------|-------------------------|--3-------3-------3-----|


  E  E  Q    E  E  E  E     W                   W
-------------------------|-------------------|-------------------|
-------------------------|-------------------|--3----------------|
-----4-------4--4--4--4--|--4----------------|--2----------------|
-----5-------5--5--5--5--|--5----------------|--0----------------|
-----5-------5--5--5--5--|--5----------------|--0----------------|
-----3-------3--3--3--3--|--3----------------|-------------------|


                         ^        ^           PM PM PM PM PM PM PM PM
  Q    Q    Q    Q       H        H           E  E  E  E  E  E  E  E
----------------------|--------------------|--------------------------|
----------------------|--0--------1--------|--------------------------|
--4---------4---------|--0--------2--------|--------------------------|
--5---------5---------|--2--------3--------|--------------------------|
--5---------5---------|--2--------3--------|--5--5--5--5--5--5--5--5--|
--3---------3---------|--0--------1--------|--3--3--3--3--3--3--3--3--|


  PM PM PM PM PM PM PM PM    PM PM PM PM PM PM PM PM
  E  E  E  E  E  E  E  E     E  E  E  E  E  E  E  E
--------------------------|--------------------------|
--------------------------|--------------------------|
--------------------------|--------------------------|
--------------------------|--------------------------|
--5--5--5--5--5--5--5--5--|--5--5--5--5--5--5--5--5--|
--3--3--3--3--3--3--3--3--|--3--3--3--3--3--3--3--3--|


  PM PM PM PM PM PM PM PM    ^                   ^
  E  E  E  E  E  E  E  E     W                   W
--------------------------|-------------------|-------------------|
--------------------------|--0----------------|--1----------------|
--------------------------|--0----------------|--2----------------|
--------------------------|--2----------------|--3----------------|
--5--5--5--5--5--5--5--5--|--2----------------|--3----------------|
--3--3--3--3--3--3--3--3--|--0----------------|--1----------------|


  PM PM PM PM PM PM PM PM    PM PM PM PM PM PM PM PM
  E  E  E  E  E  E  E  E     E  E  E  E  E  E  E  E
--------------------------|--------------------------|
--------------------------|--------------------------|
--------------------------|--------------------------|
--------------------------|--------------------------|
--5--5--5--5--5--5--5--5--|--5--5--5--5--5--5--5--5--|
--3--3--3--3--3--3--3--3--|--3--3--3--3--3--3--3--3--|


  PM PM PM PM PM PM PM PM    PM PM PM PM PM PM PM PM
  E  E  E  E  E  E  E  E     E  E  E  E  E  E  E  E
--------------------------|--------------------------|
--------------------------|--------------------------|
--------------------------|--------------------------|
--------------------------|--------------------------|
--5--5--5--5--5--5--5--5--|--5--5--5--5--5--5--5--5--|
--3--3--3--3--3--3--3--3--|--3--3--3--3--3--3--3--3--|


  PM PM PM PM PM PM PM PM    PM PM PM PM PM PM PM PM    ^
  E  E  E  E  E  E  E  E     E  E  E  E  E  E  E  E     W
--------------------------|--------------------------|-------------------|
--------------------------|--------------------------|--0----------------|
--------------------------|--------------------------|--0----------------|
--------------------------|--------------------------|--2----------------|
--5--5--5--5--5--5--5--5--|--5--5--5--5--5--5--5--5--|--2----------------|
--3--3--3--3--3--3--3--3--|--3--3--3--3--3--3--3--3--|--0----------------|


  ^                   PM PM PM PM PM PM PM PM    PM PM PM PM PM PM PM PM
  W                   E  E  E  E  E  E  E  E     E  E  E  E  E  E  E  E
-------------------|--------------------------|--------------------------|
--1----------------|--------------------------|--------------------------|
--2----------------|--------------------------|--------------------------|
--3----------------|--------------------------|--------------------------|
--3----------------|--5--5--5--5--5--5--5--5--|--5--5--5--5--5--5--5--5--|
--1----------------|--3--3--3--3--3--3--3--3--|--3--3--3--3--3--3--3--3--|


  PM PM PM PM PM PM PM PM    PM PM PM PM PM PM PM PM
  E  E  E  E  E  E  E  E     E  E  E  E  E  E  E  E
--------------------------|--------------------------|
--------------------------|--------------------------|
--------------------------|--------------------------|
--------------------------|--------------------------|
--0--0--0--0--0--0--0--0--|--0--0--0--0--0--0--0--0--|
--------------------------|--------------------------|


  PM PM PM PM PM PM PM PM    PM PM PM PM PM PM PM PM
  E  E  E  E  E  E  E  E     E  E  E  E  E  E  E  E
--------------------------|--------------------------|
--------------------------|--------------------------|
--------------------------|--------------------------|
--------------------------|--------------------------|
--0--0--0--0--0--0--0--0--|--0--0--0--0--0--0--0--0--|
--------------------------|--------------------------|


  PM PM PM PM PM PM PM PM    PM PM PM PM PM PM PM PM
  E  E  E  E  E  E  E  E     E  E  E  E  E  E  E  E
--------------------------|--------------------------|
--------------------------|--------------------------|
--------------------------|--------------------------|
--------------------------|--------------------------|
--5--5--5--5--5--5--5--5--|--5--5--5--5--5--5--5--5--|
--3--3--3--3--3--3--3--3--|--3--3--3--3--3--3--3--3--|


  PM PM PM PM PM PM PM PM    PM PM PM PM PM PM PM PM    ^
  E  E  E  E  E  E  E  E     E  E  E  E  E  E  E  E     W
--------------------------|--------------------------|-------------------|
--------------------------|--------------------------|--0----------------|
--------------------------|--------------------------|--0----------------|
--------------------------|--------------------------|--2----------------|
--5--5--5--5--5--5--5--5--|--5--5--5--5--5--5--5--5--|--2----------------|
--3--3--3--3--3--3--3--3--|--3--3--3--3--3--3--3--3--|--0----------------|


  ^                   PM PM PM PM PM PM PM PM    PM PM PM PM PM PM PM PM
  W                   E  E  E  E  E  E  E  E     E  E  E  E  E  E  E  E
-------------------|--------------------------|--------------------------|
--1----------------|--------------------------|--------------------------|
--2----------------|--------------------------|--------------------------|
--3----------------|--------------------------|--------------------------|
--3----------------|--5--5--5--5--5--5--5--5--|--5--5--5--5--5--5--5--5--|
--1----------------|--3--3--3--3--3--3--3--3--|--3--3--3--3--3--3--3--3--|


  PM PM PM PM PM PM PM PM    PM PM PM PM PM PM PM PM
  E  E  E  E  E  E  E  E     E  E  E  E  E  E  E  E
--------------------------|--------------------------|
--------------------------|--------------------------|
--------------------------|--------------------------|
--------------------------|--------------------------|
--5--5--5--5--5--5--5--5--|--5--5--5--5--5--5--5--5--|
--3--3--3--3--3--3--3--3--|--3--3--3--3--3--3--3--3--|


  PM PM PM PM PM PM PM PM
  E  E  E  E  E  E  E  E
--------------------------||
--------------------------||
--------------------------||
--------------------------||
--5--5--5--5--5--5--5--5--||
--3--3--3--3--3--3--3--3--||


===================================================================
===================================================================


Guitar 2



E||-------|-------|-------|-------|-------|-------|-------|-------|-------|
B||-------|-------|-------|-------|-------|-------|-------|-------|-------|
G||-------|-------|-------|-------|-------|-------|-------|-------|-------|
D||-------|-------|-------|-------|-------|-------|-------|-------|-------|
A||-------|-------|-------|-------|-------|-------|-------|-------|-------|
E||-------|-------|-------|-------|-------|-------|-------|-------|-------|


-------|-------|-------|-------|-------|-------|-------|-------|-------|-------|
-------|-------|-------|-------|-------|-------|-------|-------|-------|-------|
-------|-------|-------|-------|-------|-------|-------|-------|-------|-------|
-------|-------|-------|-------|-------|-------|-------|-------|-------|-------|
-------|-------|-------|-------|-------|-------|-------|-------|-------|-------|
-------|-------|-------|-------|-------|-------|-------|-------|-------|-------|


-------|-------|-------|-------|-------|-------|-------|-------|-------|-------|
-------|-------|-------|-------|-------|-------|-------|-------|-------|-------|
-------|-------|-------|-------|-------|-------|-------|-------|-------|-------|
-------|-------|-------|-------|-------|-------|-------|-------|-------|-------|
-------|-------|-------|-------|-------|-------|-------|-------|-------|-------|
-------|-------|-------|-------|-------|-------|-------|-------|-------|-------|


                                                           ^
                                                           W
-------|-------|-------|-------|-------|-------|-------|---8----------------|
-------|-------|-------|-------|-------|-------|-------|---8----------------|
-------|-------|-------|-------|-------|-------|-------|---9----------------|
-------|-------|-------|-------|-------|-------|-------|--10----------------|
-------|-------|-------|-------|-------|-------|-------|--10----------------|
-------|-------|-------|-------|-------|-------|-------|---8----------------|


                       ^
   W                   W                   W
---L----------------|--3----------------|--L----------------|
---L----------------|--3----------------|--L----------------|
---L----------------|--4----------------|--L----------------|
---L----------------|--5----------------|--L----------------|
---L----------------|--5----------------|--L----------------|
---L----------------|--3----------------|--L----------------|


   ^
   W                    W
---8----------------|---L----------------|-------|-------|-------|-------|
---8----------------|---L----------------|-------|-------|-------|-------|
---9----------------|---L----------------|-------|-------|-------|-------|
--10----------------|---L----------------|-------|-------|-------|-------|
--10----------------|---L----------------|-------|-------|-------|-------|
---8----------------|---L----------------|-------|-------|-------|-------|


                  ^               ^
                  H.           E  E     W
-------|-------|--0------------L--1--|--L----------------|-------|-------|
-------|-------|--0------------L--1--|--L----------------|-------|-------|
-------|-------|--0------------L--2--|--L----------------|-------|-------|
-------|-------|--2------------L--3--|--L----------------|-------|-------|
-------|-------|--2------------L--3--|--L----------------|-------|-------|
-------|-------|--0---------------1--|--L----------------|-------|-------|


-------|-------|-------|-------|-------|-------|-------|-------|-------|-------|
-------|-------|-------|-------|-------|-------|-------|-------|-------|-------|
-------|-------|-------|-------|-------|-------|-------|-------|-------|-------|
-------|-------|-------|-------|-------|-------|-------|-------|-------|-------|
-------|-------|-------|-------|-------|-------|-------|-------|-------|-------|
-------|-------|-------|-------|-------|-------|-------|-------|-------|-------|


   ^                                        ^
   W                    W                   W
---8----------------|---L----------------|--3----------------|
---8----------------|---L----------------|--3----------------|
---9----------------|---L----------------|--4----------------|
--10----------------|---L----------------|--5----------------|
--10----------------|---L----------------|--5----------------|
---8----------------|---L----------------|--3----------------|


                       ^
  W                    W                    W
--L----------------|---8----------------|---L----------------|-------|-------|
--L----------------|---8----------------|---L----------------|-------|-------|
--L----------------|---9----------------|---L----------------|-------|-------|
--L----------------|--10----------------|---L----------------|-------|-------|
--L----------------|--10----------------|---L----------------|-------|-------|
--L----------------|---8----------------|---L----------------|-------|-------|


  PM PM   PH      PH             PM PM   PH PM   PH
  E  E    E  E    E  E  E  E     E  E    E  E    H
------------------------------|---------------------------|
------------------------------|---------------------------|
----------------<>4-----------|---------------------------|
--------<>5----------5-----5--|--------<>5----------------|
-----5-------5----------5-----|----------------<>5--------|
--3---------------------------|--3--3-------3-------------|


  PM PM   PH      PH             PM PM   PH PM   PH
  E  E    E  E    E  E  E  E     E  E    E  E    H
------------------------------|---------------------------|
------------------------------|---------------------------|
----------------<>4-----------|---------------------------|
--------<>5----------5-----5--|--------<>5----------------|
-----5-------5----------5-----|----------------<>5--------|
--3---------------------------|--3--3-------3-------------|


         SH                     SH
  Q      H.              Q      H.
----------------------|----------------------|-------|-------|
----------------------|----------------------|-------|-------|
----------------------|----------------------|-------|-------|
-------<>5------------|-------<>5------------|-------|-------|
----------------------|----------------------|-------|-------|
----------------------|----------------------|-------|-------|


                      PM PM PM PM PM PM PM PM
  W                   E  E  E  E  E  E  E  E     W
-------------------|--------------------------|-------------------|
-------------------|--------------------------|-------------------|
-------------------|--------------------------|-------------------|
--5----------------|--5--5--5--5--5--5--5--5--|-------------------|
--3----------------|--3--3--3--3--3--3--3--3--|--5----------------|
-------------------|--------------------------|--3----------------|


  PM PM PM PM PM PM PM PM                        PM PM PM PM PM PM PM PM
  E  E  E  E  E  E  E  E     W                   E  E  E  E  E  E  E  E
--------------------------|-------------------|--------------------------|
--------------------------|-------------------|--------------------------|
--------------------------|-------------------|--------------------------|
--------------------------|--5----------------|--5--5--5--5--5--5--5--5--|
--5--5--5--5--5--5--5--5--|--3----------------|--3--3--3--3--3--3--3--3--|
--3--3--3--3--3--3--3--3--|-------------------|--------------------------|


  PM PM PM PM PM PM PM PM
  E  E  E  E  E  E  E  E     W
--------------------------|-------------------|-------|-------|-------|-------|
--------------------------|-------------------|-------|-------|-------|-------|
--------------------------|-------------------|-------|-------|-------|-------|
--7--7--7--7--7--7--7--7--|--7----------------|-------|-------|-------|-------|
--5--5--5--5--5--5--5--5--|--5----------------|-------|-------|-------|-------|
--------------------------|-------------------|-------|-------|-------|-------|


-------|-------|-------|-------|-------|-------|-------|-------|-------|-------|
-------|-------|-------|-------|-------|-------|-------|-------|-------|-------|
-------|-------|-------|-------|-------|-------|-------|-------|-------|-------|
-------|-------|-------|-------|-------|-------|-------|-------|-------|-------|
-------|-------|-------|-------|-------|-------|-------|-------|-------|-------|
-------|-------|-------|-------|-------|-------|-------|-------|-------|-------|


                  ^        ^           PM PM   PH      PH
                  H        H           E  E    E  E    E  E  E  E
-------|-------|--0--------1--------|------------------------------|
-------|-------|--0--------1--------|------------------------------|
-------|-------|--0--------2--------|----------------<>4-----------|
-------|-------|--2--------3--------|--------<>5----------5-----5--|
-------|-------|--2--------3--------|-----5-------5----------5-----|
-------|-------|--0--------1--------|--3---------------------------|


  PM PM   PH PM   PH          PM PM   PH      PH
  E  E    E  E    H           E  E    E  E    E  E  E  E
---------------------------|------------------------------|
---------------------------|------------------------------|
---------------------------|----------------<>4-----------|
--------<>5----------------|--------<>5----------5-----5--|
----------------<>5--------|-----5-------5----------5-----|
--3--3-------3-------------|--3---------------------------|


  PM PM   PH PM   PH                 SH                     SH
  E  E    E  E    H           Q      H.              Q      H.
---------------------------|----------------------|----------------------|
---------------------------|----------------------|----------------------|
---------------------------|----------------------|----------------------|
--------<>5----------------|-------<>5------------|-------<>5------------|
----------------<>5--------|----------------------|----------------------|
--3--3-------3-------------|----------------------|----------------------|


  PM PM   PH      PH             PM PM   PH PM   PH
  E  E    E  E    E  E  E  E     E  E    E  E    H
------------------------------|---------------------------|
------------------------------|---------------------------|
----------------<>4-----------|---------------------------|
--------<>5----------5-----5--|--------<>5----------------|
-----5-------5----------5-----|----------------<>5--------|
--3---------------------------|--3--3-------3-------------|


  PM PM   PH      PH             PM PM   PH PM   PH
  E  E    E  E    E  E  E  E     E  E    E  E    H
------------------------------|---------------------------|
------------------------------|---------------------------|
----------------<>4-----------|---------------------------|
--------<>5----------5-----5--|--------<>5----------------|
-----5-------5----------5-----|----------------<>5--------|
--3---------------------------|--3--3-------3-------------|


  PM PM   PH      PH             PM PM   PH PM   PH
  E  E    E  E    E  E  E  E     E  E    E  E    H
------------------------------|---------------------------|
------------------------------|---------------------------|
----------------<>4-----------|---------------------------|
--------<>5----------5-----5--|--------<>5----------------|
-----5-------5----------5-----|----------------<>5--------|
--3---------------------------|--3--3-------3-------------|


         SH                     SH
  Q      H.              Q      H.
----------------------|----------------------|-------|-------|
----------------------|----------------------|-------|-------|
----------------------|----------------------|-------|-------|
-------<>5------------|-------<>5------------|-------|-------|
----------------------|----------------------|-------|-------|
----------------------|----------------------|-------|-------|


    E  E  E    Q    E  E  E     E    E  E    E  E  E  E  E
--4g5--5--5--4g5----5--5--5--|--5--4g5--5--4g5--5--5--5--5--|
--4g5--5--5--4g5----5--5--5--|--5--4g5--5--4g5--5--5--5--5--|
-----------------------------|------------------------------|
-----------------------------|------------------------------|
-----------------------------|------------------------------|
-----------------------------|------------------------------|


    E  E  E    Q    E  E  E     Q     Q       H              W
--4g5--5--5--4g5----5--5-----|--------------------------|---------------------|
--4g5--5--5--4g5----5--5--7--|--7b----Lpbr----7b--------|---------------------|
--------------------------7--|--7b----Lpb-----7b--------|--/14----------------|
-----------------------------|--------------------------|---------------------|
-----------------------------|--------------------------|---------------------|
-----------------------------|--------------------------|---------------------|


   H           E   E      E    S  S     W
------------------------------------|--------------------|
--------------15--------------------|--------------------|
---Lpb------------14pbr---Lp--12----|--12----------------|
---------------------------------14-|--------------------|
------------------------------------|--------------------|
------------------------------------|--------------------|


                         ^                   ^
   Q     H.              W                   W
----------------------|--0----------------|--1----------------|
----------------------|--0----------------|--1----------------|
--12\-----------------|--0----------------|--2----------------|
----------------------|--2----------------|--3----------------|
----------------------|--2----------------|--3----------------|
----------------------|--0----------------|--1----------------|


  PM PM   PH      PH             PM PM   PH PM   PH
  E  E    E  E    E  E  E  E     E  E    E  E    H
------------------------------|---------------------------|
------------------------------|---------------------------|
----------------<>4-----------|---------------------------|
--------<>5----------5-----5--|--------<>5----------------|
-----5-------5----------5-----|----------------<>5--------|
--3---------------------------|--3--3-------3-------------|


  PM PM   PH      PH             PM PM   PH PM   PH
  E  E    E  E    E  E  E  E     E  E    E  E    H
------------------------------|---------------------------|
------------------------------|---------------------------|
----------------<>4-----------|---------------------------|
--------<>5----------5-----5--|--------<>5----------------|
-----5-------5----------5-----|----------------<>5--------|
--3---------------------------|--3--3-------3-------------|


  PM PM   PH      PH
  E  E    E  E    E  E  E  E
------------------------------||
------------------------------||
----------------<>4-----------||
--------<>5----------5-----5--||
-----5-------5----------5-----||
--3---------------------------||




Duration Legend
---------------
W - whole
H - half
Q - quarter
E - 8th
S - 16th
T - 32nd
X - 64th
. - note dotted
|-n-|  - n-tuplets


Tablature Legend
----------------
L - tied note
x - dead note
g - grace note
(n) - ghost note
> - accentuded note
NH - natural harmonic
AH - artificial harmonic
TH - tapped harmonic
SH - semi harmonic
PH - pitch harmonic
h - hammer on
p - pull off
b - bend
br - bendRelease
pb - preBend
pbr - preBendRelease
brb - bendReleaseBend
\n/ - tremolo bar dip
\n - tremolo bar dive
-/n - tremolo bar Release up
/n\ - tremolo bar inverted dip
/n - tremolo bar return
-\n - tremolo bar Release down
S - shift slide
s - legato slide
/ -  slide into from below or out of upwards
\ -  slide into from above or out of downwards
~ - vibrato
W - wide vibrato
tr - trill
TP - tremolo picking
T - tapping
S - slap
P - pop
< - fade in
^ - brush up
v - brush down
Добавлено: 30.03.2012
Вам также может быть интересно:
Другие материалы по этой песне:

Страница создана 25.02.2012
http://primanota.ru/giuffria/i-must-be-dreaming-chords.htm
Привет, Гость.
Предлагаем пройти революционный курс по гитаре.
Подарок от PrimaNota.Ru, забирай!