PrimaNota.ru - самый крупный в мире бесплатный архив песенных текстов, аккордов, табулатур и нот


Gism - Nuclear Armed Hogs - таба, видео

Регистрация Запомнить меня
Войти через:  Facebook Google Twitter Vk Yandex Mail.ru

Gism - Nuclear Armed Hogs - таба, видео

Печатать
Просмотров: 34
Artist: G.I.S.M.
Song: Nuclear Armed Hogs
Album: Detestation
Year: 1983 
Tabbed by:chris

Tuning: E standard

 Intro
e|-----------------------------------------------------------------------------------------|
B|-----------------------------------------------------------------------------------------|
G|-----------------------------------------------------------------------------------------|
D|-2----4----5----7----8----x///---------------2----4----5----7----8---------2-2-2-2-2-2-2-|
A|-0----2----3----5----6----x///-pick slide----0----2----3----5----6---12\---0-0-0-0-0-0-0-|
E|--------------------------x///-----------------------------------------------------------|


 Pre-Verse
e|-----------------------------------------------------------------------------------|
B|-----------------------------------------------------------------------------------|
G|-----------------------------------------------------------------------------------|
D|----9------7-------------9------7-------------9------7-------------9------7--------|
A|-7--7--10--5--9--10---7--7--10--5--9--10---7--7--10--5--9--10---7--7--10--5--9--10-|
E|-5-----8------7--8----5-----8------7--8----5-----8------7--8----5-----8------7--8--|


 Verse
e|------------------------------------------------------------------------|
B|---------------------------------------------------------------------4b-|
G|---------------------------------------------------------------------6b-|
D|----9----------------------9----------------------9---------------------|
A|-7--7--9--10-10-10-10---7--7--9--10-10-10-10---7--7--9--10-10-10-10-----|
E|-5-----7--8--8--8--8----5-----7--8--8--8--8----5-----7--8--8--8--8------|

e|-------------------------------------------------------------------------|
B|---------------------------------------------------------------------16b-|
G|---------------------------------------------------------------------19b-|
D|----9----------------------9----------------------9----------------------|
A|-7--7--9--10-10-10-10---7--7--9--10-10-10-10---7--7--9--10-10-10-10------|
E|-5-----7--8--8--8--8----5-----7--8--8--8--8----5-----7--8--8--8--8-------|

e|---------------------------------------------------------------------------|
B|------------------------------------------------------------------------4b-|
G|------------------------------------------------------------------------6b-|
D|----9----------------------9----------------------9------------------------|
A|-7--7--9--10-10-10-10---7--7--9--10-10-10-10---7--7--9--10-10-10-10-10-----|
E|-5-----7--8--8--8--8----5-----7--8--8--8--8----5-----7--8--8--8--8--8------|

e|-------------------------------------------------------------------------------------|
B|-------------------------------------------------------------------------------------|
G|-------------------------------------------------------------------------------------|
D|----9----------------------7----------------------9------------------8-8-8-8-8-8-8-8-|
A|-7--7--9--10-10-10-10---7--9--9--10-10-10-10---7--7--9--10-10-10-10--6-6-6-6-6-6-6-6-|
E|-5-----7--8--8--8--8----5-----7--8--8--8--8----5-----7--8--8--8--8-------------------|


 Chorus
e|----------------------------------------------------------|
B|----------------------------------------------------------|
G|----------------------------------------------------------|
D|-9-9-9-9-9-9-9-9-9-9-9-9-9-9-9-9--8-8--8-8--8-8--8-8--8-8-|
A|-7-7-7-7-7-7-7-7-7-7-7-7-7-7-7-7--6-0--6-0--6-0--6-0--0-6-|
E|----------------------------------------------------------|
        Nuclear  Armed  Hogs!

e|-----------------------------------------------------------|
B|-----------------------------------------------------------|
G|-----------------------------------------------------------|
D|-9-9-9-9-9-9-9-9-9-9-9-9-9-9-9-9--8-8--8-8--8-8--8-8-------|
A|-7-7-7-7-7-7-7-7-7-7-7-7-7-7-7-7--6-0--6-0--6-0--6-0--10-9-|
E|------------------------------------------------------8--7-|


 Solo
e|-24b------------------9-9-11-11-12-12-11-11-9-9-11-11-12-12-11-11-9-9-10-10-12-12-14-14-12-12-10-10-|
B|------------10-12-13--------------------------------------------------------------------------------| 
G|----------------------------------------------------------------------------------------------------|
D|----------------------------------------------------------------------------------------------------|
A|----------------------------------------------------------------------------------------------------|
E|-------0b-------------------------------------------------------------------------------------------|

e|-12-12-14-14-15-15-14-14-12-12-15-15-14-14-12-12---15b---15----------------------------------------|
B|--------------------------------------------------------------13-12-10--10b------15-13-12-13-12----|
G|------------------------------------------------------------------------13b---14----------------14-|
D|---------------------------------------------------------------------------------------------------|
A|---------------------------------------------------------------------------------------------------|
E|---------------------------------------------------------------------------------------------------|

e|-----------------9h11h12---12-10-------11b---13b---14b---17-17-17-17-17-17-19-19-19-19-19-19-|
B|---------9h11h12-----------------12b---14b---16b---17b---------------------------------------|
G|-9h11h12-------------------------------------------------------------------------------------|
D|---------------------------------------------------------------------------------------------|
A|---------------------------------------------------------------------------------------------|
E|---------------------------------------------------------------------------------------------|

e|-20-20-20-20-20-20-19-19-19-19-19-19-17-17-17-17-17-17-19-19-19-19-19-19-20-20-20-20-20-20-|
B|-------------------------------------------------------------------------------------------|
G|-------------------------------------------------------------------------------------------|
D|-------------------------------------------------------------------------------------------|
A|-------------------------------------------------------------------------------------------|
E|-------------------------------------------------------------------------------------------|

e|-19-19-19-19-19-19-17-17-17-17-17-17-19-19-19-19-19-19--20-20-19-19-17-17-20-20-19-19-17-17-|
B|--------------------------------------------------------------------------------------------|
G|--------------------------------------------------------------------------------------------|
D|--------------------------------------------------------------------------------------------|
A|--------------------------------------------------------------------------------------------|
E|--------------------------------------------------------------------------------------------|

e|-20-20-19-19-17-17--20b---20---15-12---12-12-13-13-15-15-13-13-12-12-13-13-15-15-13-13-12-12-|
B|---------------------------------------------------------------------------------------------|
G|---------------------------------------------------------------------------------------------|
D|---------------------------------------------------------------------------------------------|
A|---------------------------------------------------------------------------------------------|
E|---------------------------------------------------------------------------------------------|

e|-------------------------------------------------------------|
B|-12-12-13-13-15-15-13-13-12-12-13-13-15-15-13-13-12-12---14b-|
G|-------------------------------------------------------------|
D|-------------------------------------------------------------|
A|-------------------------------------------------------------|
E|-------------------------------------------------------------|

e|----------------------------------------------------------|
B|-12-15-13-12----------------------------------------------|
G|-------------15-13-12-------------------------------------|
D|----------------------13-12-15-13-12----------------------|
A|-------------------------------------12-13-15-16-15-13-12-|
E|----------------------------------------------------------|


 2nd Solo
e|-11b--11b-11b--13b--13b-13b--14b--14b-14b--15b--16b--17-17-17-17-17-17-17-17-17-17-17-17-17-17-17-17-|
B|-----------------------------------------------------------------------------------------------------|
G|-----------------------------------------------------------------------------------------------------|
D|-----------------------------------------------------------------------------------------------------|
A|-----------------------------------------------------------------------------------------------------|
E|-----------------------------------------------------------------------------------------------------|

e|-19-19-19-19-19-19-19-19-19-19-19-19-19-19-19-19-20-20-20-20-20-20-20-20-20-20-20-20-20-20-20-20-|
B|-------------------------------------------------------------------------------------------------|
G|-------------------------------------------------------------------------------------------------|
D|-------------------------------------------------------------------------------------------------|
A|-------------------------------------------------------------------------------------------------|
E|-------------------------------------------------------------------------------------------------|

e|-22-22-22-22-22-22-22-22--22b--|
B|-------------------------------|
G|-------------------------------|
D|-------------------------------|
A|-------------------------------|
E|-------------------------------|


 End Riff
e|---------------------------------------------------------|
B|---------------------------------------------------------|
G|-------------------------------------------------------9-|
D|-2--4--5--7--8--9--2--4--5--7--8--9--2--4--5--7--8--9--7-|
A|-0--2--3--5--6--7--0--2--3--5--6--7--0--2--3--5--6--7----|
E|---------------------------------------------------------|




******************************************

| /   slide up
| \   slide down
| h   hammer-on
| p   pull-off
| ~   vibrato
| +   harmonic
| x   Mute note
| b   Bend
| pb  Pre-bend
| br  Bend release
| pbr Pre-bend release
| brb Bend release bend

************************************
Добавлено: 23.05.2016
Другие материалы по этой песне:
  • Аккорды и текст

Страница создана 23.05.2016
http://primanota.ru/gism/nuclear-armed-hogs-chords.htm
Привет, Гость.
Предлагаем пройти революционный курс по гитаре.
Подарок от PrimaNota.Ru, забирай!