PrimaNota.ru - самый крупный в мире бесплатный архив песенных текстов, аккордов, табулатур и нот


Gisbert Zu Knyphausen - Spieglein Spieglein - таба, видео

Регистрация Запомнить меня
Войти через:  Facebook Google Twitter Vk Yandex Mail.ru

Gisbert Zu Knyphausen - Spieglein Spieglein - таба, видео

Печатать
Просмотров: 232
Авторы музыки: Gisbert zu Knyphausen
Авторы текста: Gisbert zu Knyphausen
Gisbert zu Knyphausen - Spieglein, Spieglein


tabbed by the-paul

Kein Capo!

Akkorde:

Em: 	022000
D/F#: 	200200
G:	320000
Asus7:	002030
C:	x32010
C/B:	x20010
Am7:	x02010
B7:	x21200

Am:	x02210

Intro/Strophe:

e|-------------------------------0-------------------------------------------|
B|-----0-------0--------0-------3----1-0----1-3------0---------0-------------|
G|------0-0-----2-2------0-0---0----0------0------0h2--2----0h2--2-----------|
D|----2--2----0--0----0---0---2----2------2------1------1--1------1----------|
A|---2-------0-------2-------0----3------0------2---------2------------------|
E|--0-------2-------3--------------------------------------------------------|   x 2

Du hörst gar nicht mehr auf zu reden, Kind.
Das hatten wir doch schon tausend Mal.
Warum fängst du wieder von vorne damit an?
Ich kann das wirklich nicht mehr hörn...
Oh, deine Zukunft ist so ungewiss,
Dein Leben voller Angst und Schiss, du fängst erst gar nichts an,
Denn es ist so gemütlich und sicher,
Auf deiner Insel voller Leid, jaja...

Refrain:

Am
Und jetzt schau dich an.
D/F#
Und sag mir dann:
G			C
Denkst du wirklich, du wärst so interessant
Am	     D/F#	      G
Wenn du dich suhlst in deinem Schmerz?
C    C/B  Am                        D/F#	
Bla, bla, bla... Ist es wirklich so toll,
           G                                     C                 Am
Hilflos zu sein? Du bist so groß und machst dich selbst so seltsam klein.
                 D/F#                      G
Du bist immer so fixiert auf das, was noch fehlt.
          c              C/B                 Em....
Und jetzt schau nicht so gequält - das sieht scheiße aus…

e|-------------------------------0-------------------------------------------|
B|-----0-------0--------0-------3----1-0----1-3------0---------0-------------|
G|------0-0-----2-2------0-0---0----0------0------0h2--2----0h2--2-----------|
D|----2--2----0--0----0---0---2----2------2------1------1--1------1----------|
A|---2-------0-------2-------0----3------0------2---------2------------------|
E|--0-------2-------3--------------------------------------------------------|

Ich mein, das Leben ist nicht einfach,
doch ein bisschen was geht immer, du sagst, du hast alles versucht,
doch du versumpfst in deinem Zimmer, du kannst doch gehn wohin du willst,
du kannst gehn wohin du willst, doch du bleibst,
du bist sowas von feige und träge.
Sei doch ehrlich, sei doch ehrlich, sei doch ehrlich, sei doch einmal ehrlich...

Refrain:

Am
Und jetzt schau dich an.
D/F#
Und sag mir dann:
G			C
Denkst du wirklich, du wärst so interessant
Am	     D/F#	      G
Wenn du dich suhlst in deinem Schmerz?
C    C/B  Am                        D/F#	
Bla, bla, bla... Ist es wirklich so toll,
           G                                     C                 Am
Hilflos zu sein? Du bist so groß und machst dich selbst so seltsam klein.
                 D/F#                      G
Du bist immer so fixiert auf das, was noch fehlt.
          c              C/B                 Em (Ende)
Und jetzt schau nicht so gequält - das sieht scheiße aus…



Hoffe ihr hattet Spaß, wirklich ein wunderbarer Mann!

cheers, der Paul
Добавлено: 29.05.2012
Другие материалы по этой песне:
  • Аккорды и текст

Страница создана 29.05.2012
http://primanota.ru/gisbert-zu-knyphausen/spieglein-spieglein-chords.htm
Привет, Гость.
Предлагаем пройти революционный курс по гитаре.
Подарок от PrimaNota.Ru, забирай!