PrimaNota.ru - самый крупный в мире бесплатный архив песенных текстов, аккордов, табулатур и нот


Gisbert Zu Knyphausen - Seltsames Licht - таба, видео

Регистрация Запомнить меня
Войти через:  Facebook Google Twitter Vk Yandex Mail.ru

Gisbert Zu Knyphausen - Seltsames Licht - таба, видео

Печатать
Просмотров: 79
Seltsames Licht

Intro und erste Strophe

Akkordgestalten:
|--0--0--0--1-----|
|--6--3--4--1--1--|
|-----------------|
|--------------2--|
|--5--2--3--0--3--|
|-----------------|

A:

E--------0-------0-------0----------------0-------0-------0--------|
B----6-------6------6--------6--6-----3-------3------3-------3--3--|
G------------------------------------------------------------------|
D------------------------------------------------------------------|
A--5---5---5---5---5---5---5--5-----2---2---2---2---2---2---2--2---|
E------------------------------------------------------------------|

E--------0-------0-------0----------------1-------0----------------|
B----4-------4------4--------4--4-----1-------1------2----3---5--0-|
G------------------------------------------------------------------|
D------------------------------------------------------------------|
A--3---3---3---3---3---3---3--3-----0---0---0---0---0---0---0--0---|
E------------------------------------------------------------------|

B:

E--------0-------5-------0------0---------0-------0-------0--------|
B----6-------6------6--------6--------3-------3------3-------3--0--|
G------------------------------------------------------------------|
D------------------------------------------------------------------|
A--5---5---5---5---5---5---5--5-----2---2---2---2---2---2---2--2---|
E------------------------------------------------------------------|

E----------------3-------------------------------------------------|
B--------1---------------1------------------1-------------1--------|
G----0--------0------0-------0---0-----0-------0---0---0------0--0-|
D------------------------------------------------------------------|
A--3---3---3---3---3---3---3--3------3---3---3--3---3---3---3--3---|
E------------------------------------------------------------------|

Erste Strophe:
A x2
B x1
A x2
B x1
und C-Akkorde bis zum Kehrreim.
Was gespielt wird während des Kehrreims und danach weiß ich noch nicht.
Ich hoffe, jemand kann das nun lösen.
Добавлено: 12.10.2013
Вам также может быть интересно:
Другие материалы по этой песне:
  • Аккорды и текст

Страница создана 12.10.2013
http://primanota.ru/gisbert-zu-knyphausen/seltsames-licht-chords.htm
Привет, Гость.
Предлагаем пройти революционный курс по гитаре.
Подарок от PrimaNota.Ru, забирай!