PrimaNota.ru - самый крупный в мире бесплатный архив песенных текстов, аккордов, табулатур и нот


Gisbert Zu Knyphausen - Ich Bin Freund Von Klischees Und Funkelten Sternen - таба, видео

Регистрация Запомнить меня
Войти через:  Facebook Google Twitter Vk Yandex Mail.ru

Gisbert Zu Knyphausen - Ich Bin Freund Von Klischees Und Funkelten Sternen - таба, видео

Печатать
Просмотров: 115
---------------------------------------------------------------------------- 
Ich bin Freund von Klischees und funkelden Sternen - Gisbert zu Knyphausen
----------------------------------------------------------------------------

Tuning: standard
Capo: 4th fret

INTRO:  

    Xx6544                             xx504x             
e |-------4---------|-----------------|-----------------|-----------------|
B |-----------------|-4h6-4-----------|-4-----4-------4-|-------4---------|
G |---5-------5-----|---------6---5---|---0-------0-----|---0-------0-----|
D |-6---6---6---6---|-6---6---6---6---|-5---5---5---5---|-5---5---5---5---|
A |-----------------|-----------------|-----------------|-----------------|
E |-----------------|-----------------|-----------------|-----------------|
    1 u 2 u 3 u 4 u   1 u 2 u 3 u 4 u   1 u 2 u 3 u 4 u   1 u 2 u 3 u 4 u

    xx3003                              xx2300            xx1010
e |-------3---------|-----------------|-----------------|-----------------|
B |-----------------|-3h5-3-------3---|-------0---------|-------1-------0-|
G |---0-------0-----|---------0-------|---3-------3-----|---0-------0-----|
D |-3---3---3---3---|-3---3-----------|-2---2---2-------|-1---1---1---1---|
A |-----------------|-----------------|-----------------|-----------------|
E |-----------------|-----------------|-----------------|-----------------|
    1 u 2 u 3 u 4 u   1 u 2 u 3 u 4 u   1 u 2 u 3 u 4 u   1 u 2 u 3 u 4 u

    xx1000
e |-----------------|-----------------|
B |-------0-------0-|-------0---------|
G |---0-------0-----|---0-------0-----|
D |-1---1---1---1---|-1---1---1---1---|
A |-----------------|-----------------|
E |-----------------|-----------------|
    1 u 2 u 3 u 4 u   1 u 2 u 3 u 4 u   


VERSE 1:                

    Xx6544                             xx504x             
e |-------4---------|-----------------|-----------------|-----------------|
B |-----------------|-4h6-4-----------|-4-----4-------4-|-------4---------|
G |---5-------5-----|---------6---5---|---0-------0-----|---0-------0-----|
D |-6---6---6---6---|-6---6---6---6---|-5---5---5---5---|-5---5---5---5---|
A |-----------------|-----------------|-----------------|-----------------|
E |-----------------|-----------------|-----------------|-----------------|
    1 u 2 u 3 u 4 u   1 u 2 u 3 u 4 u   1 u 2 u 3 u 4 u   1 u 2 u 3 u 4 u

    xx3003                              xx2300            
e |-------3---------|-----------------|-----------------|-----------------|
B |-----------------|-3h5-3-------3---|-------0-------0-|-------0---------|
G |---0-------0-----|---------0-------|---3-------3-----|---3-------3-----|
D |-3---3---3---3---|-3---3-----------|-2---2---2---2---|-2---2---2---2---|
A |-----------------|-----------------|-----------------|-----------------|
E |-----------------|-----------------|-----------------|-----------------|
    1 u 2 u 3 u 4 u   1 u 2 u 3 u 4 u   1 u 2 u 3 u 4 u   1 u 2 u 3 u 4 u


Durch den Hafen wehen wir,
zwei Blatt recycletes Papier.
und ja, wir werden uns wieder füllen
mit all den prächtigen Farben,
die unsere Einsamkeit umhüllen
und all die hässlichen Narben.


 
VERSE 2:

Der Himmel leuchtet in Schwarz und in Blau.
und er schmückt sich mit Sternen,
als wolle er niemals wieder Grau
und hässlich werden.
Schrei mich an, wenn du magst.
Lach mich aus, wenn du willst.


CHORUS 1:
          G
Aber ich liebe es,
                   A7
wie die Erde sich dreht
         C
und der Mond dann auf einmal
                D
hell und einsam über uns steht.
          G                       A7
Ich bin Freund,  Freund von Klischees
          C
und von funkelnden Sternen
       D
ja und ich mag dich sehr, sehr gern.


INTERLUDE: play INTRO


VERSE 3:

Mit der Linie 62
nach Finkenwerder und zurück
und weiter und immer weiter.
Dieses Lächeln steht dir prächtig.
Ich könnt mir das ewig anschauen,
und zum Glück wird es breiter und breiter.
Lach mich aus, wenn du magst.
Schrei mich an, wenn du willst.


CHORUS 2:

Aber ich liebe es,
wenn sich der Schiffsmotor dreht
und der Wind uns beim Fahren
um die Ohren weht.
Ich bin Freund, Freund von Klischees
und von Elbfähren
ja und dich mag ich sehr, sehr gern.


INTERLUDE: play INTRO




Добавлено: 16.04.2012
Другие материалы по этой песне:
  • Аккорды и текст

Страница создана 16.04.2012
http://primanota.ru/gisbert-zu-knyphausen/ich-bin-freund-von-klischees-und-funkelten-sternen-chords.htm
Привет, Гость.
Предлагаем пройти революционный курс по гитаре.
Подарок от PrimaNota.Ru, забирай!