PrimaNota.ru - самый крупный в мире бесплатный архив песенных текстов, аккордов, табулатур и нот


Girugamesh - Owari To Mirai - текст песни, таба, видео

Регистрация Запомнить меня
Войти через:  Facebook Google Twitter Vk Yandex Mail.ru

Girugamesh - Owari To Mirai - текст песни, таба, видео

Печатать
Просмотров: 142
-------------------------------------------------------------------------------
                             OWARI TO MIRAI - Girugamesh
-------------------------------------------------------------------------------
Tabbed by: Faidon
Email: faidon.was.here@hotmail.com


Hey, my first tab. Hope u enjoy it.
Email me if something is unclear or incorrect.
This is the way I play it. Iv watched them in concert and the rest is by ear.

Tuning: drop C

Q ~ 190 bpm

4/4 beat

Guitar I : Overdrive
Guitar II: Overdrive


Intro


d|----------------|--------------------10-----|-------------------------|
A|----------------|----10---10----------------|-------------------------|
F|----------------|---------------7-----------|-------------------------|
C|-0--------------|-(0)-----------------------|-0-0-0-0-0--0-0-0-0-0----|
G|-0--------------|-(0)-----------------------|-0-0-0-0-0--0-0-0-0-0----|
C|-0--------------|-(0)-----------------------|-0-0-0-0-0--0-0-0-0-0----|


d|-----------------------------|
A|-----------------------------|
F|-----------------------------|
C|-0-0-0-0-0--0--1-1-1-1-3-3---|
G|-0-0-0-0-0--0--1-1-1-1-3-3---|
C|-0-0-0-0-0--0--1-1-1-1-3-3---|


d|-------------------------------------------|
A|-------------------------------------------|
F|-7-7-7-7-7-7-7-7/14-14-14-14-14-14-14-14-14|
C|-------------------------------------------|
G|-5-5-5-5-5-5-5-5/12-12-12-12-12-12-12-12-12|
C|-------------------------------------------|


d|------------------------------------|
A|------------------------------------|
F|/15-15-15-15-15-15-15-15--14--10--8-|
C|------------------------------------|
G|/13-13-13-13-13-13-13-13--12--8---6-|
C|------------------------------------|


d|-------------------------------------------|
A|-------------------------------------------|
F|-7-7-7-7-7-7-7-7/14-14-14-14-14-14-14-14-14|
C|-------------------------------------------|
G|-5-5-5-5-5-5-5-5/12-12-12-12-12-12-12-12-12|
C|-------------------------------------------|


d|-------------------------------------------------|
A|-------------------------------------------------|
F|/15-15-15-15-15-15-15-15/17-17-17-17-17-17-17-17-|
C|-------------------------------------------------|
G|/13-13-13-13-13-13-13-13/15-15-15-15-15-15-15-15-|
C|-------------------------------------------------|

Verse 1

d|--------------------------|------------------------|------------------------|
A|*-------------------------|------------------------|------------------------|
F|--------------------------|------------------------|------------------------|
C|--5-5-5-5-5-5-5-5-5-5-5-5-|-3--5-5-5-5-5-5-5-5-5-5-|-3--1-1-1-1-1-1-1-1-1-1-|
G|*-5-5-5-5-5-5-5-5-5-5-5-5-|-3--5-5-5-5-5-5-5-5-5-5-|-3--1-1-1-1-1-1-1-1-1-1-|
C|--5-5-5-5-5-5-5-5-5-5-5-5-|-3--5-5-5-5-5-5-5-5-5-5-|-3--1-1-1-1-1-1-1-1-1-1-|


d|-----------------------|
A|----------------------*|
F|-----------------------|
C|-0--1-1-1-1-1-1-1-1/3--|
G|-0--1-1-1-1-1-1-1-1/3-*|
C|-0--1-1-1-1-1-1-1-1/3--|


Bridge

d|---------------------------|--------------------------|
A|*--------------------------|--------------------------|
F|---------------------------|--------------------------|
C|--1-1-1-1-0--1-1-1--1-1-1--|-1-1-1-1-0--1-1-1--3-3-3--|
G|*-1-1-1-1-0--1-1-1--1-1-1--|-1-1-1-1-0--1-1-1--3-3-3--|
C|--1-1-1-1-0--1-1-1--1-1-1--|-1-1-1-1-0--1-1-1--3-3-3--|

                            ---------------------------\ 1st time

d|--------------------------|--------------------------|
A|--------------------------|-------------------------*|
F|-3-3-3-3-2--2-2-2--2-2-2--|-3-3-3-3-2--2-2-2--2-2-2--|
C|-5-5-5-5-5--5-5-5--5-5-5--|-5-5-5-5-5--5-5-5--5-5-5--|
G|-5-5-5-5-5--5-5-5--5-5-5--|-5-5-5-5-5--5-5-5--5-5-5-*|
C|-5-5-5-5-5--5-5-5--5-5-5--|-5-5-5-5-5--5-5-5--5-5-5--|


-------------------------\ 2nd time

d|-----------------------|
A|-----------------------|
F|-3-3-3-3-2-------------|
C|-5-5-5-5-5--3-3--3-3---|
G|-5-5-5-5-5--3-3--3-3---|
C|-5-5-5-5-5--3-3--3-3---|


Chorus

d|----------------------------------|---------------------------------|
A|*---------------------------------|---------------------------------|
F|----------------------------------|---------------------------------|
C|--1-1-1-1-1-1-1-1-3-3-3-3-3-3-3-3-|-5-5-5-5-5-5-5-5-8-8-8-8-8-8-8-8-|
G|*-1-1-1-1-1-1-1-1-3-3-3-3-3-3-3-3-|-5-5-5-5-5-5-5-5-8-8-8-8-8-8-8-8-|
C|--1-1-1-1-1-1-1-1-3-3-3-3-3-3-3-3-|-5-5-5-5-5-5-5-5-8-8-8-8-8-8-8-8-|


d|---------------------------------|-------------------------------|
A|---------------------------------|------------------------------*|
F|---------------------------------|-------------------------------|
C|-1-1-1-1-1-1-1-1-3-3-3-3-3-3-3-3-|-5--5--5--5-3--5-5-5-5-5-5-3---|
G|-1-1-1-1-1-1-1-1-3-3-3-3-3-3-3-3-|-5--5--5--5-3--5-5-5-5-5-5-3--*|
C|-1-1-1-1-1-1-1-1-3-3-3-3-3-3-3-3-|-5--5--5--5-3--5-5-5-5-5-5-3---|


d|---------------------------------|
A|---------------------------------|
F|---------------------------------|
C|-0---funny feedback--------------|
G|-0-------------------------------|
C|-0-------------------------------|


Verse 2

    Guitar I

 /  d|--------------------------|------------------------|
 |  A|--------------------------|---------------------7--|
 |  F|------------9-------------|----------9-------------|
 |* C|----/7-6-7----7-6h7p6-----|---/7-6-7---7-6h7p6-----|
 |  G|-----------------------9--|------------------------|
 |  C|--------------------------|------------------------|
 |
 |  Guitar II
 |
 |  d|--------------------------|------------------------|
 |  A|*-------------------------|------------------------|
 |* F|--------------------------|------------------------|
 |  C|--5-5-5-5-5-5-5-5-5-5-5-5-|-3--5-5-5-5-5-5-5-5-5-5-|
 |  G|*-5-5-5-5-5-5-5-5-5-5-5-5-|-3--5-5-5-5-5-5-5-5-5-5-|
 \  C|--5-5-5-5-5-5-5-5-5-5-5-5-|-3--5-5-5-5-5-5-5-5-5-5-|


       d|------------------------|-------------------------- | \
       A|------------------------|---------------------7-|-- |
       F|-----------9------------|-----------9-----------|-- |
       C|---/7-6-7----7-6h7p6----|---/7-6-7----7-6h7p6---|-- |
       G|----------------------9-|-----------------------|-- |
       C|------------------------|-----------------------|-- |
                                                           |
                                                           |
                                                           |
       d|------------------------|-----------------------|-- |
       A|------------------------|-----------------------|-- |
       F|------------------------|-----------------------|-- |
       C|-3--1-1-1-1-1-1-1-1-1-1-|-0--1-1-1-1-1-1-1-1/3--|-- |
       G|-3--1-1-1-1-1-1-1-1-1-1-|-0--1-1-1-1-1-1-1-1/3--|-- |
       C|-3--1-1-1-1-1-1-1-1-1-1-|-0--1-1-1-1-1-1-1-1/3----- | /

d|-------------------|--------------5------------|
A|-------------------|------------------8--------|
F|-------------------|----------------------7----|
C|-0-----------------|-5-------------------------|
G|-0-----------------|-5-------------------------|
C|-0-----------------|-5-------------------------|

Bridge

d|---------------------------|--------------------------|
A|*--------------------------|--------------------------|
F|---------------------------|--------------------------|
C|--1-1-1-1-0--1-1-1--1-1-1--|-1-1-1-1-0--1-1-1--3-3-3--|
G|*-1-1-1-1-0--1-1-1--1-1-1--|-1-1-1-1-0--1-1-1--3-3-3--|
C|--1-1-1-1-0--1-1-1--1-1-1--|-1-1-1-1-0--1-1-1--3-3-3--|

                            ---------------------------\ 1st time

d|--------------------------|--------------------------|
A|--------------------------|-------------------------*|
F|-3-3-3-3-2--2-2-2--2-2-2--|-3-3-3-3-2--2-2-2--2-2-2--|
C|-5-5-5-5-5--5-5-5--5-5-5--|-5-5-5-5-5--5-5-5--5-5-5--|
G|-5-5-5-5-5--5-5-5--5-5-5--|-5-5-5-5-5--5-5-5--5-5-5-*|
C|-5-5-5-5-5--5-5-5--5-5-5--|-5-5-5-5-5--5-5-5--5-5-5--|


-------------------------\ 2nd time

d|-----------------------|
A|-----------------------|
F|-3-3-3-3-2-------------|
C|-5-5-5-5-5--3-3--3-3---|
G|-5-5-5-5-5--3-3--3-3---|
C|-5-5-5-5-5--3-3--3-3---|

Chorus

d|----------------------------------|---------------------------------|
A|*---------------------------------|---------------------------------|
F|----------------------------------|---------------------------------|
C|--1-1-1-1-1-1-1-1-3-3-3-3-3-3-3-3-|-5-5-5-5-5-5-5-5-8-8-8-8-8-8-8-8-|
G|*-1-1-1-1-1-1-1-1-3-3-3-3-3-3-3-3-|-5-5-5-5-5-5-5-5-8-8-8-8-8-8-8-8-|
C|--1-1-1-1-1-1-1-1-3-3-3-3-3-3-3-3-|-5-5-5-5-5-5-5-5-8-8-8-8-8-8-8-8-|


d|---------------------------------|-------------------------------|
A|---------------------------------|------------------------------*|
F|---------------------------------|-------------------------------|
C|-1-1-1-1-1-1-1-1-3-3-3-3-3-3-3-3-|-5--5--5--5-3--5-5-5-5-5-5-3---|
G|-1-1-1-1-1-1-1-1-3-3-3-3-3-3-3-3-|-5--5--5--5-3--5-5-5-5-5-5-3--*|
C|-1-1-1-1-1-1-1-1-3-3-3-3-3-3-3-3-|-5--5--5--5-3--5-5-5-5-5-5-3---|

Other Part

d|-------------------|-----------------|-----------------|--------------------|
A|*------------------|-----------------|-----------------|-------------------*|
F|-------------------|-----------------|-----------------|--------------------|
C|--5----------------|-8---------------|-1---------------|-3------------------|
G|*-5----------------|-8---------------|-1---------------|-3-----------------*|
C|--5----------------|-8---------------|-1---------------|-3------------------|


d|-------------------|-----------------|--------------------|
A|-------------------|-----------------|--------------------|
F|-------------------|-----------------|--------------------|
C|-1-----------------|-0---------------|-(0)----------------|
G|-1-----------------|-0---------------|-(0)----------------|
C|-1-----------------|-0---------------|-(0)----------------|


d|----------------------------|----------------------------|
A|----------------------------|----------------------------|
F|----------------------------|----------------------------|
C|-------0----------0------0--|-------0----------0------0--|
G|-0-0-0-0--0-0-0-0-0--0-0-0--|-0-0-0-0--0-0-0-0-0--0-0-0--|
C|-0-0-0-0--0-0-0-0-0--0-0-0--|-0-0-0-0--0-0-0-0-0--0-0-0--|
 P.M....    ........   ....     .....    .......    ....

d|----------------------------|-------------------------|
A|----------------------------|-------------------------|
F|----------------------------|-------------------------|
C|-------0----------0------0--|-------0-------3-3--3-3--|
G|-0-0-0-0--0-0-0-0-0--0-0-0--|-0-0-0-0--0-0--3-3--3-3--|
C|-0-0-0-0--0-0-0-0-0--0-0-0--|-0-0-0-0--0-0--3-3--3-3--|
 P.M.....   .......    ....     ......   .......


Chorus

d|----------------------------------|---------------------------------|
A|*---------------------------------|---------------------------------|
F|----------------------------------|---------------------------------|
C|--1-1-1-1-1-1-1-1-3-3-3-3-3-3-3-3-|-5-5-5-5-5-5-5-5-8-8-8-8-8-8-8-8-|
G|*-1-1-1-1-1-1-1-1-3-3-3-3-3-3-3-3-|-5-5-5-5-5-5-5-5-8-8-8-8-8-8-8-8-|
C|--1-1-1-1-1-1-1-1-3-3-3-3-3-3-3-3-|-5-5-5-5-5-5-5-5-8-8-8-8-8-8-8-8-|


d|---------------------------------|-------------------------------|
A|---------------------------------|------------------------------*|
F|---------------------------------|-------------------------------|
C|-1-1-1-1-1-1-1-1-3-3-3-3-3-3-3-3-|-5--5--5--5-3--5-5-5-5-5-5-3---|
G|-1-1-1-1-1-1-1-1-3-3-3-3-3-3-3-3-|-5--5--5--5-3--5-5-5-5-5-5-3--*|
C|-1-1-1-1-1-1-1-1-3-3-3-3-3-3-3-3-|-5--5--5--5-3--5-5-5-5-5-5-3---|


    Guitar I

 /  d|---5-----4-----0---5-----4-----0--|---5-----4-----0---5-----4-----0--|
 |  A|*---------------------------------|---------------------------------*|
 |  F|----------------------------------|----------------------------------|
 |  C|----------------------------------|----------------------------------|
 |  G|*---------------------------------|---------------------------------*|
 |  C|----------------------------------|----------------------------------|
 |
 |  Guitar2
 |
 |  d|----------------------------------|----------------------------------|
 |  A|*---------------------------------|---------------------------------*|
 |  F|----------------------------------|----------------------------------|
 |  C|--1-1-1-1-1-1-1-1-3-3-3-3-3-3-3-3-|-5-5-5-5-5-5-5-5-8-8-8-8-8-8-8-8--|
 |  G|*-1-1-1-1-1-1-1-1-3-3-3-3-3-3-3-3-|-5-5-5-5-5-5-5-5-8-8-8-8-8-8-8-8-*|
 \  C|--1-1-1-1-1-1-1-1-3-3-3-3-3-3-3-3-|-5-5-5-5-5-5-5-5-8-8-8-8-8-8-8-8--|


d|---------------------------------|-------------------------------|
A|---------------------------------|-------------------------------|
F|---------------------------------|-------------------------------|
C|-1-1-1-1-1-1-1-1-3-3-3-3-3-3-3-3-|-5--5--5--5-3--5-5-5-5-5-5-3---|
G|-1-1-1-1-1-1-1-1-3-3-3-3-3-3-3-3-|-5--5--5--5-3--5-5-5-5-5-5-3---|
C|-1-1-1-1-1-1-1-1-3-3-3-3-3-3-3-3-|-5--5--5--5-3--5-5-5-5-5-5-3---|

d|---------------------------------|
A|---------------------------------|
F|---------------------------------|
C|-1---funny feedback--------------|
G|-1-------------------------------|
C|-1-------------------------------| THE END (With some funny slide out)


Have fun!


| /  slide up
| \  slide down
| h  hammer-on
| p  pull-off
| ~  vibrato
| +  harmonic
| x  Mute note
===============================================================================
Добавлено: 29.05.2012
Другие материалы по этой песне:

Страница создана 27.05.2012
http://primanota.ru/girugamesh/owari-to-mirai-chords.htm
Привет, Гость.
Предлагаем пройти революционный курс по гитаре.
Подарок от PrimaNota.Ru, забирай!