PrimaNota.ru - самый крупный в мире бесплатный архив песенных текстов, аккордов, табулатур и нот


Girugamesh - Having Betrayed Is Why - текст песни, таба, видео

Регистрация Запомнить меня
Войти через:  Facebook Google Twitter Vk Yandex Mail.ru

Girugamesh - Having Betrayed Is Why - текст песни, таба, видео

Печатать
Просмотров: 156
Dropped-C                                                                    PM       
     H        Q    Q         H        Q    Q     4x   E  E  E  E  E  Q    E   
D||---------------------||-----------------------||--------------------------|
A||--6--------8----9----||------------8----9-----||--------------------------|
F||---------------------||*--5------------------*||*-------------------------|
C||---------------------||*---------------------*||*--1--3--3--1--3--3----3--|
G||---------------------||-----------------------||---1--3--3--1--3--3----3--|
C||---------------------||-----------------------||---1--3--3--1--3--3----3--|


                 PM                        PM       
  E  E  E  E  E  Q    E     E  E  E  E  E  Q    E   
-------------------------|-------------------------|
-------------------------|-------------------------|
-------------------------|-------------------------|
--1--3--3--1--3--3----3--|--1--3--3--1--3--3----3--|
--1--3--3--1--3--3----3--|--1--3--3--1--3--3----3--|
--1--3--3--1--3--3----3--|--1--3--3--1--3--3----3--|


                 PM                                      
  E  E  E  E  E  E  E  E   4x    Q    E  Q    Q    E     
---------------------------||--------------------------||
---------------------------||---------9--8-------------||
--------------------------*||*----------------5----8--*||
--1--3--3--1--3--4--4--4--*||*--10--------------------*||
--1--3--3--1--3--4--4--4---||--------------------------||
--1--3--3--1--3--4--4--4---||--------------------------||


                 PM                        PM                        PM       
  E  E  E  E  E  Q    E     E  E  E  E  E  Q    E     E  E  E  E  E  Q    E   
-------------------------|-------------------------|-------------------------|
-------------------------|-------------------------|-------------------------|
-------------------------|-------------------------|-------------------------|
--1--3--3--1--3--3----3--|--1--3--3--1--3--3----3--|--1--3--3--1--3--3----3--|
--1--3--3--1--3--3----3--|--1--3--3--1--3--3----3--|--1--3--3--1--3--3----3--|
--1--3--3--1--3--3----3--|--1--3--3--1--3--3----3--|--1--3--3--1--3--3----3--|


                                       refrain              
                 PM                                         
  E  E  E  E  E  E  E  E               Q.      Q    Q.      
--------------------------|-------||-----------------------|
--------------------------|-------||-----------------------|
--------------------------|-------||*----------------------|
--1--3--3--1--3--4--4--4--|-------||*--3-------3----3------|
--1--3--3--1--3--4--4--4--|-------||---3-------3----3------|
--1--3--3--1--3--4--4--4--|-------||---3-------3----3------|


  Q.     Q    Q.        Q.     Q    Q.        Q.     Q    Q.        
---------------------|---------------------|----------------------||
---------------------|---------------------|----------------------||
---------------------|---------------------|---------------------*||
--1------1----1------|--6------6----6------|--5------5----5------*||
--1------1----1------|--6------6----6------|--5------5----5-------||
--1------1----1------|--6------6----6------|--5------5----5-------||


                  PM                        PM                        PM       
   E  E  E  E  E  Q    E     E  E  E  E  E  Q    E     E  E  E  E  E  Q    E   
--------------------------|-------------------------|-------------------------|
--------------------------|-------------------------|-------------------------|
*-------------------------|-------------------------|-------------------------|
*--1--3--3--1--3--3----3--|--1--3--3--1--3--3----3--|--1--3--3--1--3--3----3--|
---1--3--3--1--3--3----3--|--1--3--3--1--3--3----3--|--1--3--3--1--3--3----3--|
---1--3--3--1--3--3----3--|--1--3--3--1--3--3----3--|--1--3--3--1--3--3----3--|


                               solo                with Wa-Wa        
                 PM            TP                  TP                
  E  E  E  E  E  E  E  E       W                   W                 
---------------------------||-------------------|-------------------|
---------------------------||-------------------|-------------------|
--------------------------*||-------------------|-------------------|
--1--3--3--1--3--4--4--4--*||--3----------------|--4----------------|
--1--3--3--1--3--4--4--4---||-------------------|-------------------|
--1--3--3--1--3--4--4--4---||-------------------|-------------------|


  TP                  TP                  TP                  TP                
  W                   W                   W                   W                 
-------------------|-------------------|-------------------|-------------------|
-------------------|-------------------|-------------------|-------------------|
-------------------|-------------------|-------------------|-------------------|
--6----------------|--4----------------|--3----------------|--4----------------|
-------------------|-------------------|-------------------|-------------------|
-------------------|-------------------|-------------------|-------------------|


  TP                  TP                                   PM       
  W                   W                     E  E  E  E  E  Q    E   
-------------------|-------------------||--------------------------|
-------------------|-------------------||--------------------------|
-------------------|-------------------||*-------------------------|
--6----------------|--8----------------||*--1--3--3--1--3--3----3--|
-------------------|-------------------||---1--3--3--1--3--3----3--|
-------------------|-------------------||---1--3--3--1--3--3----3--|


                 PM                        PM       
  E  E  E  E  E  Q    E     E  E  E  E  E  Q    E   
-------------------------|-------------------------|
-------------------------|-------------------------|
-------------------------|-------------------------|
--1--3--3--1--3--3----3--|--1--3--3--1--3--3----3--|
--1--3--3--1--3--3----3--|--1--3--3--1--3--3----3--|
--1--3--3--1--3--3----3--|--1--3--3--1--3--3----3--|


                 PM                                                         
  E  E  E  E  E  E  E  E   8x   Q    Q    Q    Q       Q    Q    Q    Q     
---------------------------||-----------------------|----------------------|
---------------------------||-----------------------|----------------------|
--------------------------*||*----------------------|----------------------|
--1--3--3--1--3--4--4--4--*||*----------------------|----------------------|
--1--3--3--1--3--4--4--4---||---8----8----8----8----|--6----6----6----6----|
--1--3--3--1--3--4--4--4---||-----------------------|----------------------|


                                                  refrain              
  Q    Q    Q    Q       Q    Q    Q    Q         Q.      Q    Q.      
----------------------|-----------------------||----------------------|
----------------------|-----------------------||----------------------|
----------------------|----------------------*||----------------------|
----------------------|----------------------*||--3-------3----3------|
--4----4----4----4----|--3----3----3----3-----||--3-------3----3------|
----------------------|-----------------------||--3-------3----3------|


  Q.     Q    Q.        Q.     Q    Q.        Q.     Q    Q.      
---------------------|---------------------|---------------------|
---------------------|---------------------|---------------------|
---------------------|---------------------|---------------------|
--1------1----1------|--6------6----6------|--5------5----5------|
--1------1----1------|--6------6----6------|--5------5----5------|
--1------1----1------|--6------6----6------|--5------5----5------|


                   PM                        PM                        PM       
    E  E  E  E  E  Q    E     E  E  E  E  E  Q    E     E  E  E  E  E  Q    E   
|--------------------------|-------------------------|-------------------------|
|--------------------------|-------------------------|-------------------------|
|*-------------------------|-------------------------|-------------------------|
|*--1--3--3--1--3--3----3--|--1--3--3--1--3--3----3--|--1--3--3--1--3--3----3--|
|---1--3--3--1--3--3----3--|--1--3--3--1--3--3----3--|--1--3--3--1--3--3----3--|
|---1--3--3--1--3--3----3--|--1--3--3--1--3--3----3--|--1--3--3--1--3--3----3--|


                 PM             TP                  TP                
  E  E  E  E  E  E  E  E        W                   W                 
---------------------------||--------------------|-------------------|
---------------------------||--------------------|-------------------|
--------------------------*||--------------------|-------------------|
--1--3--3--1--3--4--4--4--*||--------------------|-------------------|
--1--3--3--1--3--4--4--4---||--10----------------|--6----------------|
--1--3--3--1--3--4--4--4---||--------------------|-------------------|


  TP                   TP                  TP                
  W                    W                   W                 
-------------------|--------------------|-------------------|
-------------------|--------------------|-------------------|
-------------------|--------------------|-------------------|
-------------------|--------------------|--8----------------|
--8----------------|--10----------------|-------------------|
-------------------|--------------------|-------------------|


  TP        TP         
  H         H          
---------------------||
---------------------||
---------------------||
---------------------||
--8--------10--------||
---------------------||
Добавлено: 20.03.2012
Вам также может быть интересно:
Другие материалы по этой песне:
  • Аккорды и текст

Страница создана 20.03.2012
http://primanota.ru/girugamesh/having-betrayed-is-why-chords.htm
Привет, Гость.
Предлагаем пройти революционный курс по гитаре.
Подарок от PrimaNota.Ru, забирай!